Song name
# A B C D E F G H I J K L M N O P Q R S T U V W X Y Z

Blanks 77 - I Wanna Be A Punk tab

This tab may require you to do some string bending, hammering, palm muting, pick 
or other guitar techniques you will be able to figure out by listening to the song. You may 
have to play a chord shown more than once in sequence. This tab are in standard guitar tuning.

You can find more great punk/oi tabs on my site:
BLACKJACKAL.PHPNET.US

Intro:

e|-------    ---    -|
B|-------    ---    -|
G|-5-----    ---    -|
D|-3-5-3- x6 -5- x3 -|
A|---3-1-    -3-    -|
E|-------    ---    -|

Main Riff, Verse and Chorus:

e|-----------|
B|-----------|
G|-----------|
D|-5-8-----5-|
A|-3-6-6-8-3-|
E|-----4-6---|

Solo:

e|-----------------------8-    -|
B|--5-65--8-98-----------8-    -|
G|-5-5---8-8----5-5--7-7---    -|
D|-------------6-6--8-8---- x2 -|
A|-------------------------    -|
E|-------------------------    -|

Outro:

e|-8-----8----------8-|
B|-8-8---8-8-11-8---8-|
G|----858--------858--|
D|--------------------|
A|--------------------|
E|--------------------|
Tap to rate this tab
# A B C D E F G H I J K L M N O P Q R S T U V W X Y Z