Song name
# A B C D E F G H I J K L M N O P Q R S T U V W X Y Z

Blaqk Audio - Stiff Kittens tab

Stiff Kittens
By Blaqk Audio

This is most of the song but it was hard to figure
some of the stuff in this song so this is what i got.
Overall its a good song.
Just listen to the song and play the parts that correspond.
Please rate and leave comments.

Intro guitar 2: 0:00-0:07
|----------------|
|----------------|
|----------------|
|----------------|  x3
|---0--3--0--3--0|
|----------------|

guitar 1:  0:08-0:24
|---------------------------------|---|
|---------------------------------|---|
|---7--9-------9--7---------------|---|
|---------7----------9--10--9--7--|---|
|---------------------------------|---|
|---------------------------------|---|

|---------------------------------|---|
|---------------------------------|---|
|---7--9-------9--7---------------|---|
|---------7----------9--10--------|---|
|---------------------------------|---|
|---------------------------------|---|


|---------------------------------|---|
|---------------------------------|---|
|---7--9-------9--7---------------|---|
|---------10---------9--10--9--5--|---|
|---------------------------------|---|
|---------------------------------|---|

|---------------------------------------|
|---------------------------------------|
|--------------------------9--7---------|
|--9--10--9--10--9--10--9--------9--10--|
|---------------------------------------|
|---------------------------------------|

guitar 1: 0:44-0:58
|--------------|------------------|------------------|-------------------|
|--------------|------------------|-----------8------|-------------------|
|------9-----7-|------9-----7-----|-----9---------9--|--12--9--7---------|
|---7-----7----|---7-----7-----10-|--7-----7---------|------------10--7--|
|--------------|------------------|------------------|-------------------|
|--------------|------------------|------------------|-------------------|

guitar 2:  0:09-0:24
|---------------------------|--------------------|--------------------------|
|---------------------------|--------------------|--------------------------|
|---------------------------|--------------------|--------------------------|
|------9--7--5--4--5--4--2--|-----9--7--5--4--5--|-----9--7--5--4--5--4-----|
|---7-----------------------|--7-----------------|--7--------------------5--|
|---------------------------|--------------------|--------------------------|

|---------------------------|
|---------------------------|
|---------------------------|
|------9--7--5--4--5--------|
|---7-----------------------|
|---------------------------|

guitar 2: 0:24-0:28
|----------------|
|----------------|
|----------------|
|----------------|  x2
|---0--3--0--3--0|
|----------------|

guitar 2:  just play along with the song to figure out the rhythm
0:28-0:59
|--------------------|
|--------------------|
|---6--4--9---11--6--|
|---7--5--10--12--7--| x2
|---7--5--10--12--7--|
|---5--3--8---10--5--|

Guitar 2: 1:12-1:26
|---------------------------|--------------------|--------------------------|
|---------------------------|--------------------|--------------------------|
|---------------------------|--------------------|--------------------------|
|------9--7--5--4--5--4--2--|-----9--7--5--4--5--|-----9--7--5--4--5--4-----|
|---7-----------------------|--7-----------------|--7--------------------5--|
|---------------------------|--------------------|--------------------------|

|
Tap to rate this tab
 
# A B C D E F G H I J K L M N O P Q R S T U V W X Y Z