Guitaretab - guitar tabs
Song name
# A B C D E F G H I J K L M N O P Q R S T U V W X Y Z
Home / B / Blaque / 808 tab

Blaque - 808 tab

No Official Webpage, other valid links:
http://www.allmusic.com/cg/amg.dll?p=amg&sql=B0ikbikbkbb79/
http://en.wikipedia.org/wiki/Blaque
http://www.geocities.com/onenoble_2000/


Artist: Blaque
Album: Blaque
Song: 808
tabbed by witmachine@yahoo.com

SIMPLE tablature for Blaque's 1999 debut single, 808.

I play this song in EADGBD tuning with a capo on the first fret.
Song can also be played in standard tuning without a capo, but that's
a little tricky to play at the speed of the song, so i recommend using
this tuning.


Capo on 1st

     1       2       3       4       1       2       3       4        |
D |--------3---------3---------------------2---------2-------0--------|
B |--------------1-------------------------------1-------1---0--------|
G |------2-------------------------------0----------------------------|
D |--0----------------------------------------------------------------|
A |----------------------------------0--------------------------------|
E |-------------------------------------------------------------------|


D |--------3---------3---------------------2---------2-------0--------|
B |--------------1-------------------------------1-------1---0--------|
G |------2-------------------------------0----------------------------|
D |--0----------------------------------------------------------------|
A |----------------------------------0--------------------------------|
E |-------------------------------------------------------------------|


second guitar with some short delay comes in
bass note on main guitar added

Git 1
D |--------3---------3---------------------2---------2-------0--------|
B |--------------1-------------------------------1-------1---0--------|
G |------2-------------------------------0----------------------------|
D |--0----------------------------------------------------------------|
A |----------------------------------0-----------3--------------------|
E |-------------------------------------------------------------------|
Git. 2                                                                |
e |-------------------------------------------------------------------|
B |-------------------------------------------------------------------|
G |---------------/9----------------------/9--------------------------|
D |-/7---7---7-------7---7---7---7---7--------7---7---7---7---7---7---|
A |-------------------------------------------------------------------|
E |-------------------------------------------------------------------|

Git 1
D |--------3---------3---------------------2---------2-------0--------|
B |--------------1-------------------------------1-------1---0--------|
G |------2-------------------------------0----------------------------|
D |--0----------------------------------------------------------------|
A |----------------------------------0-----------3--------------------|
E |-------------------------------------------------------------------|
Git. 2                                                                |
e |-------------------------------------------------------------------|
B |-------------------------------------------------------------------|
G |---------------/9----------------------/9--------------------------|
D |-/7---7---7-------7---7---7---7---7--------7---7---7---7---7---7---|
A |-------------------------------------------------------------------|
E |-------------------------------------------------------------------|


bass comes in
[ Tab from: http://www.guitaretab.com/b/blaque/192022.html ]
Git 1.
D |--------3---------3---------------------2---------2-------0--------|
B |--------------1-------------------------------1-------1---0--------|
G |------2-------------------------------0----------------------------|
D |--0----------------------------------------------------------------|
A |----------------------------------0-----------3--------------------|
E |-------------------------------------------------------------------|
Bass                                                                  |
G |--10----9-----7-----------------------------5----------------------|
D |--------------------------5---5---7--------------------------------|
A |-------------------------------------------------------------------|
E |-------------------------------------------------------------------|

Git 1.
D |--------3---------3---------------------2---------2-------0--------|
B |--------------1-------------------------------1-------1---0--------|
G |------2-------------------------------0----------------------------|
D |--0----------------------------------------------------------------|
A |----------------------------------0-----------3--------------------|
E |-------------------------------------------------------------------|
Bass                                                                  |
G |--10----9-----7-----------------------------5----------------------|
D |--------------------------5---5---7--------------------------------|
A |-------------------------------------------------------------------|
E |-------------------------------------------------------------------|


then bass, second guitar drop out


later on, the chill part with jazzy keyboard chords

Git 1.
D |--------3-------------------------------2--------------------------|
B |-------------------------------------------------------------------|
G |------2-------------------------------0----------------------------|
D |--0----------------------------------------------------------------|
A |----------------------------------0--------------------------------|
E |-------------------------------------------------------------------|
Keys Dm                              Amaj7                            |
D |----0--------------------------------------------------------------|
B |--1-3-----------------------------1--------------------------------|
G |--0-2-----------------------------0--------------------------------|
D |----0-----------------------------2--------------------------------|
A |----------------------------------0--------------------------------|
E |-------------------------------------------------------------------|

Git 1.
D |--------3-------------------------------2-------------------2-2-2--|
B |------------------------------------------------------1---1-1-1-1--|
G |------2-------------------------------0---------------0-2---2-2-2--|
D |--0----------------------------------------------------------------|
A |----------------------------------0--------------------------------|
E |------------------------------------------------------x-x-x-x-x-x--|
Keys Dm                              Amaj7                            |
D |----0--------------------------------------------------------------|
B |--1-3-------------3b--1-------1---1--------------------------------|
G |--0-2---------------------2-------0--------------------------------|
D |----0--------------------------------------------------------------|
A |-------------------------------------------------------------------|
E |-------------------------------------------------------------------|




comment/rate



×
808