Song name
# A B C D E F G H I J K L M N O P Q R S T U V W X Y Z

Blasters - I Wish You Would tab

easy song to play, mostly because phils harmonica does a lotta work


              "I WISH YOU WOULD"  by The Blasters

main riff:
|-------------------------------|--------------------------------|
|-------------------------------|--------------------------------|
|-------------------------------|--------------------------------|
|-------5--3--5------5-5--3--5--|-------5--3--5------5-5--3--5---|
|-------------------------------|--------------------------------|
|---3-------------3-------------|---3------------3---------------| repeat 4 times



early in the morning bout break of day
|-------------------------------|--------------------------------|
|-------------------------------|--------------------------------|
|-------------------------------|--------------------------------|
|-------5--3--5------5-5--3--5--|-------5--3--5------5-5--3--5---|
|-------------------------------|--------------------------------|
|---3-------------3-------------|---3------------3---------------|


that's when my baby went away
|-------------------------------|--------------------------------|
|-------------------------------|--------------------------------|
|-------------------------------|--------------------------------|
|-------5--3--5------5-5--3-----|-------5--3--5------5-5--3------|
|----------------------------5--|----------------------------5---|
|---3-------------3-------------|---3------------3---------------|


huggin and kissin' late at night
|-------------------------------|--------------------------------|
|-------------------------------|--------------------------------|
|-------------------------------|--------------------------------|
|-------5--3--5------5-5--3-----|-------5--3--5------5-5--3------|
|----------------------------5--|----------------------------5---|
|---3-------------3-------------|---3------------3---------------|


makes a pretty baby feel just right
|-------------------------------|--------------------------------|
|-------------------------------|--------------------------------|
|-------------------------------|--------------------------------|
|-------5--3--5------5-5--3-----|-------5--3--5------5-5--3------|
|----------------------------5--|----------------------------5---|
|---3-------------3-------------|---3------------3---------------|

tell me pretty baby watcha tryin' to do
|-------------------------------|--------------------------------|
|-------------------------------|--------------------------------|
|-------------------------------|--------------------------------|
|-------5--3--5------5-5--3-----|-------5--3--5------5-5--3------|
|----------------------------5--|----------------------------5---|
|---3-------------3-------------|---3------------3---------------|

tryin' to love me and some other man too
|-------------------------------|--------------------------------|
|-------------------------------|--------------------------------|
|-------------------------------|--------------------------------|
|-------5--3--5------5-5--3-----|-------5--3--5------5-5--3------|
|----------------------------5--|----------------------------5---|
|---3-------------3-------------|---3------------3---------------|

you know i love you,can't help myself
|-------------------------------|--------------------------------|
|-------------------------------|--------------------------------|
|-------------------------------|--------------------------------|
|-------5--3--5------5-5--3-----|-------5--3--5------5-5--3------|
|----------------------------5--|----------------------------5---|
|---3-------------3-------------|---3------------3---------------|

wouldn't miss you for no body else
|-------------------------------|--------------------------------|
|-------------------------------|--------------------------------|
|-------------------------------|--------------------------------|
|-------5--3--5------5-5--3-----|-------5--3--5------5-5--3------|
|----------------------------5--|----------------------------5---|
|---3-------------3-------------|---3------------3---------------|

cryin' and pleadin' ain't doin' no good
|-------------------------------|--------------------------------|
|-------------------------------|--------------------------------|
|-------------------------------|--------------------------------|
|-------5--3--5------5-5--3-----|-------5--3--5------5-5--3------|
|----------------------------5--|----------------------------5---|
|---3-------------3-------------|---3------------3---------------|

come back baby, i wish you would...
|-------------------------------|--------------------------------|
|-------------------------------|--------------------------------|
|-------------------------------|--------------------------------|
|-------5--3--5------5-5--3-----|-------5--3--5------5-5--3------|
|----------------------------5--|----------------------------5---|
|---3-------------3-------------|---3------------3---------------|


|-------------------------------|--------------------------------|
|-------------------------------|--------------------------------|
|-------------------------------|--------------------------------|
|-------5--3--5------5-5--3--5--|-------5--3--5------5-5--3--5---|
|-------------------------------|--------------------------------|
|---3-------------3-------------|---3------------3---------------|  

|-------------------------------|--------------------------------|
|-------------------------------|--------------------------------|
|-------------------------------|--------------------------------|
|-------5--3--5------5-5--3-----|-------5--3--5------5-5--3------|
|----------------------------5--|----------------------------5---|
|---3-------------3-------------|---3------------3---------------|
and repeat this riff until the end of the song,


-Bert

p.s make sure you get a good harmonica player too. :)
Tap to rate this tab
# A B C D E F G H I J K L M N O P Q R S T U V W X Y Z