Song name
# A B C D E F G H I J K L M N O P Q R S T U V W X Y Z

Blasters - Im Shakin tab

fun song, great in concert, such a good band



                          "I'M SHAKIN'" by The Blasters


|-----------|---------------|------------------|--------------|
|-----------|---------------|------------------|--------------|
|-----------|---------------|------------------|---0----------|
|------1--2-|----2----1--2--|----2-------1--2--|-----2--------|
|---2-------|-------2-------|-------2--2-------|-------2------|
|-----------|---------------|------------------|---------0----|


when you touch my hand and you talk sweet talk i get a knockin in my knees and a wobble in my walk
|-----------------------------------------------------------------------------|
|-----------------------------------------------------------------------------|
|-----------------------------------------------------------------------------|
|--------2------------------------------------------2-------------------------|
|-----------------------------------------------------------------------------|
|--------0------------------------------------------0-------------------------|

and i'm tremblin'        and i'm shakin'
|--------------|---------------|------------------|--------------|
|--------------|---------------|------------------|--------------|
|--------------|---------------|------------------|---0----------|
|---------1--2-|----2----1--2--|----2-------1--2--|-----2--------|
|------2-------|-------2-------|-------2--2-------|-------2------|
|--------------|---------------|------------------|---------0----|

when you take me in your arms and you talk romance my heart starts doing a saint vitus dance
|-----------------------------------------------------------------------------|
|-----------------------------------------------------------------------------|
|-----------------------------------------------------------------------------|
|--------2------------------------------------------2-------------------------|
|-----------------------------------------------------------------------------|
|--------0------------------------------------------0-------------------------|

and i'm pantin'   and i'm shakin'
|--------------|---------------|------------------|--------------|
|--------------|---------------|------------------|--------------|
|--------------|---------------|------------------|---0----------|
|---------1--2-|----2----1--2--|----2-------1--2--|-----2--------|
|------2-------|-------2-------|-------2--2-------|-------2------|
|--------------|---------------|------------------|---------0----|

       early in the mornin' time late in the middle of the night
|------------------------------------------------------------------------------|
|------------------------------------------------------------------------------|
|------------------------------------------------------------------------------|
|--------2----------------------2----------------------------------------------|
|------------------------------------------------------------------------------|
|--------0----------------------0----------------------------------------------|

when ever this chick comes over me, i wanna hug you with all of my might
|------------------------------------------------------------------------------|
|------------------------------------------------------------------------------|
|------------------------------------------------------------------------------|
|--------2----------------------2----------------------------------------------|
|------------------------------------------------------------------------------|
|--------0----------------------0----------------------------------------------|

and i'm sweatin'    and i'm shakin'
|--------------|---------------|------------------|--------------|
|--------------|---------------|------------------|--------------|
|--------------|---------------|------------------|---0----------|
|---------1--2-|----2----1--2--|----2-------1--2--|-----2--------|
|------2-------|-------2-------|-------2--2-------|-------2------|
|--------------|---------------|------------------|---------0----|


just repeat this stuff with the next verses and until the end of the song

-Bert
Tap to rate this tab
# A B C D E F G H I J K L M N O P Q R S T U V W X Y Z