Song name
# A B C D E F G H I J K L M N O P Q R S T U V W X Y Z

Blasters - Flat Top Joint tab

         "FLAT TOP JOINT" by The Blasters

|-----------5~~~~~~~-8\su---------5~~~~~~~-8\su---------5~~~~~~-8/su-|
|---------5----------7\su-------5----------7\su-------5---------7/su-|
|---5-5h6-----------------5-5h6-----------------5-5h6----------------|
|--------------------------------------------------------------------|
|--------------------------------------------------------------------|
|--------------------------------------------------------------------|

then the brake is;
|-----------5---------|-------------|
|---------5----8-7--5-|---5---------|
|---5-5h6-------------|-7---5-------|
|---------------------|-------7~~~~-|
|---------------------|-------------|
|---------------------|-------------|

verse:
 down at the end of the freeway
|-----------------------------------------|
|-----------------------------------------|
|-----------------------------------------|
|-----------------------------------------|
|-------------7-7--9-9-----------7-7--9-9-|
|---5-5--9-9------------5-5--9-9----------|

just behind some laundromat
|-----------------------------------------|
|-----------------------------------------|
|-----------------------------------------|
|-----------------------------------------|
|-------------7-7--9-9-----------7-7--9-9-|
|---5-5--9-9------------5-5--9-9----------|

and:
|--------------------------------------------|
|--------------------------------------------|
|--------------------------------------------|
|------------7-7--9-9--10-10--9-9--7-7-------|
|---5-5--9-9-----------------------------9-9-|
|--------------------------------------------|

|-----------5~~~~~~~-8\su---------5~~~~~~~-8\su---------5~~~~~~-8/su-|
|---------5----------7\su-------5----------7\su-------5---------7/su-|
|---5-5h6-----------------5-5h6-----------------5-5h6----------------|
|--------------------------------------------------------------------|
|--------------------------------------------------------------------|
|--------------------------------------------------------------------|

|-----------5---------|-------------|
|---------5----8-7--5-|---5---------|
|---5-5h6-------------|-7---5-------|
|---------------------|-------7~~~~-|
|---------------------|-------------|
|---------------------|-------------|

solo is something like
|---8-8-8-8-8--5-----------------5------------5---------------|
|---7-7-7-7-7--5-----5-----5------------5------------5-----5--|
|----------------5h6---5h6---5h6----5h6---5h6----5h6---5h6----|
|-------------------------------------------------------------|
|-------------------------------------------------------------|
|-------------------------------------------------------------|

and then you repeat the verse riffs and end with
|-----------5---------|-------------|---------|
|---------5----8-7--5-|---5---------|-7--5~~~-|
|---5-5h6-------------|-7---5-------|-7--6~~~-|
|---------------------|-------7~~~~-|---------|
|---------------------|-------------|---------|
|---------------------|-------------|---------|


yay! just listen to the song and you'll understand!

-Bert
Tap to rate this tab
# A B C D E F G H I J K L M N O P Q R S T U V W X Y Z