Song name
# A B C D E F G H I J K L M N O P Q R S T U V W X Y Z

Blaxito Blasster - Se Acabo Lo Que Yo Siento tab

GUITARRA 1:
----------------------------------------------------------------------------


e----------------------------------------------------------------------------|
B-15s/16--13-15-16--16-13--13s/16-13-15-16--16s/18-16-15--15-11-13--11H/13---|
G-------------------------------------------------------------------------15-|
D----------------------------------------------------------------------------|
A----------------------------------------------------------------------------|
E----------------------------------------------------------------------------|


e---------------------------------------------------------------------------|
B-15-11-13-15--15s/16-13-11-13----------------------------------------------|
G---------------------------------------------------------------------------|
D---------------------------------------------------------------------------|
A---------------------------------------------------------------------------|
E---------------------------------------------------------------------------|

GUITARRA 2:
ARPEGIO DE DOm, SOL#m, La#m y SOl.
--------------------------------------------------------------------------

e-------------3-----------------4----------------------6------------------|
B-----------4---4-----------------4----------------------6----------------|
G---------5-------5----------5------5----------------7-----7--------------|
D-------5-----------5------6----------6------------8---------8------------|
A-----3------------------6--------------6--------8-------------8----------|
E---DOm-----------Sol#m-4------------------La#-6--------------------------|

e------------------3------------------------------------------------------|
B--------------------3----------------------------------------------------|
G---------------4------4--------------------------------------------------|
D-------------5----------5------------------------------------------------|
A-----------5--------------5----------------------------------------------|
E---Sol--3----------------------------------------------------------------|


S/:Slide
Tap to rate this tab
# A B C D E F G H I J K L M N O P Q R S T U V W X Y Z