Song name
# A B C D E F G H I J K L M N O P Q R S T U V W X Y Z

Bleach - Baseline tab

e---------------------------------------------------------|
B---------------------------------------------------------|
G---------------------------------------------------------|
D---------------------------------------------------------|
A-3--3-3--3-3--3-3-3-3--3-3--3-3-3-3--3--3-3-3-3--3-3-----|
E---------------------------------------------------------|

(rythum guitar)
e---------------------------------------------------------------------|
B---------------------------------------------------------------------|
G-5-5-5-5-5-5-5-5-5-5-5-5-5-5-5-5-5-5-5-5-5-5-5-5-5-5-5-5-5-5-5-5-----|
D-5-5-5-5-5-5-5-5-5-5-5-5-5-5-5-5-5-5-5-5-5-5-5-5-5-5-5-5-5-5-5-5-----|
A-3-3-3-3-3-3-3-3-3-3-3-3-3-3-3-3-3-3-3-3-3-3-3-3-3-3-3-3-3-3-3-3-----|
E---------------------------------------------------------------------|

(lead guitar)
e---------------------------|
B---------------------------|
G---------------------------|
D-----5-----5------5------5-|
A---------------------------|
E-5-5---5--5---5-5---5--5---|
(x2)

e-------------------------|
B----3-----3--5-----5-----|
G-5-----5--------5-----5--|
D-------------------------|
A-------------------------|
E-------------------------|
(x2)
Tap to rate this tab
# A B C D E F G H I J K L M N O P Q R S T U V W X Y Z