Song name
# A B C D E F G H I J K L M N O P Q R S T U V W X Y Z

Bleach - La Distancia Para Un Duelo tab

Hi guys this is my first tab ever (its about time), and even then it's a 
I did this tab because no one else has,
and I know you guys can help me improve it.This is just the intro, but I'm working on 
rest of the song too.

~dmginc308


"La Distancia para Un Duelo"

from Bleach Original Soundtrack 3


/= slide up neck (as in towards the top)
\= slide down neck (as in towards the body)
h= hammer on
p= pull off
~= vibrato
tr= tremolo pick


GTR 1: acoustic, standard tuning

GTR 2: acoustic, standard tuning


GTR 1 (repeat twice)

e|--------------------------------------------|
B|--------------------------------------------|
G|--------9--------5h6h7--10------------------|
D|---7h10---10-----------------9p8p7--9-------|
A|-0------------0------------------------11---|
E|--------------------------------------------|


GTR1 (I counted 56 times lol)

e|---------------------------------------------------------------|
B|---------------------------------------------------------------|
G|--9-----9----9----10-----10----10------------------------------|
D|---10p7--10p7-10p7---10p7--10p7--10p7--------------------------|
A|---------------------------------------------------------------|
E|---------------------------------------------------------------|


GTR2 (repeat 5 times)

e|-------------------------------------------------------------|
B|-------------------------------------------------------------|
G|-------------------------------------------------------------|
D|-----5---------------5---------------------------------------|
A|-------------------------------------------------------------|
E|--5--------3--4--5------3h4----------------------------------|
Tap to rate this tab
 
# A B C D E F G H I J K L M N O P Q R S T U V W X Y Z