Song name
# A B C D E F G H I J K L M N O P Q R S T U V W X Y Z

Bleach - Quincys Craft tab

-------------------------------------------------------------------------------
                             Quincy's Craft - Bleach Soundtrack
-------------------------------------------------------------------------------
Tabbed by: DennisRockon

If you find any corrections please comment :)

Other tabs from before i made this account:

tabs.ultimate-guitar.com/y/yasuharu_takanashi/grey_no_theme_tab.htm

http://tabs.ultimate-guitar.com/y/yasuharu_takanashi/impregnable_tab.htm

http://tabs.ultimate-guitar.com/y/yoshida_brothers/rising_tab.htm


Tuning:Standard

|--------------------------------------------------------|
|-(10-12-13-10-15-13-12-10-)x2-(8-10-12-8-13-12-10-8-)---|x2
|--------------------------------------------------------|
|--------------------------------------------------------|
|--------------------------------------------------------|
|--------------------------------------------------------|

|----------------------------------------------------|
|----(6-8-10-6-12-10-8-6-)x2--(5-6-8-5-10-8-6-5-)-x2-|
|----------------------------------------------------|
|----------------------------------------------------|
|----------------------------------------------------|
|----------------------------------------------------|

Rythm

A5  G5   F5  E5

Strings( for guitar)

|---------------------------------------------------|
|---------------------------------------------------|
|---------------------------------------------------|
|--7~--9~-10~-12~-10~-9~-7~-------------------------|
|---------------------------------------------------|
|---------------------------------------------------|

After the strings the melody goes down

|---------------------------------------------------|
|--(3-5-6-3-8-6-5-3-)x2-(1-3-5-1-6-5-3-1-)x2--------|
|---------------------------------------------------|
|---------------------------------------------------|
|---------------------------------------------------|
|---------------------------------------------------|

|---------------------------------------------------|
|--(0-1-3-0-5-3-1-0-)x2-(--0-1---3-1-0---)x2--------|
|-----------------------(2-----2-------2-)----------|
|---------------------------------------------------|
|---------------------------------------------------|
|---------------------------------------------------|

Rythm

D5 C5 B5 A5

The Staccato strings(all on high E string)

e|--12-12-12-12-11-11-11-11-12-12-12-12-13-13-13-13--

e|--15-15-15-15-13-13-13-13-11-11-11-11-12-12-12-12--


        while The Lead play
|-------------------|
|(3-5-6-3-8-6-5-3-)-|
|-------------------|
|-------------------|
|-------------------|
|-------------------|

Chords kicks in again

A5 G5 F5 E5 D5 C5 B5 A5

and the melody plays the melody from bright to dark.
|--------------------------------------------------------|
|-(10-12-13-10-15-13-12-10-)x2-(8-10-12-8-13-12-10-8-)---|x2
|--------------------------------------------------------|
|--------------------------------------------------------|
|--------------------------------------------------------|
|--------------------------------------------------------|

|----------------------------------------------------|
|----(6-8-10-6-12-10-8-6-)x2--(5-6-8-5-10-8-6-5-)-x2-|
|----------------------------------------------------|
|----------------------------------------------------|
|----------------------------------------------------|
|----------------------------------------------------|

|---------------------------------------------------|
|--(3-5-6-3-8-6-5-3-)x2-(1-3-5-1-6-5-3-1-)x2--------|
|---------------------------------------------------|
|---------------------------------------------------|
|---------------------------------------------------|
|---------------------------------------------------|

|---------------------------------------------------|
|--(0-1-3-0-5-3-1-0-)x2-(--0-1---3-1-0---)x2--------|
|-----------------------(2-----2-------2-)----------|
|---------------------------------------------------|
|---------------------------------------------------|
|---------------------------------------------------|

Melody Stops and the staccato strings finish the Piece.
Tap to rate this tab
# A B C D E F G H I J K L M N O P Q R S T U V W X Y Z