Song name
# A B C D E F G H I J K L M N O P Q R S T U V W X Y Z

Bleach - Jenns Song tab

This song is amazing i love it and the funny thing is my gf name is jen so i think its 
and i found this song while we were fighting. So enjoy(sry i dont know the solo im not 
good)

Verse:
E|------------------|
B|------------------|
G|------------------|
D|--6-6-6-6-6-6-----|
A|-7-7-7-7-7-7------|
E|------------------|
 Then after "better to come," play:
E|------------------|
B|------------------|
G|------------------|
D|------------------|
A|--4-4-4-4-6-6-6-0-|
E|-5-5-5-5-7-7-7-7--|
Then play the same thing over again

At "Somtimes the greatest things are small," play:
E|-------------------------------------|
B|-------------------------------------|
G|-99999999-66666666-------------------|
D|-99999999-66666666-77777777-99999999-|
A|-77777777-44444444-77777777-99999999-|
E|-------------------55555555-79999999-|

Then at "Plan to make it work," play:
E|--------------|
B|--------------|
G|-----99999999-|
D|-7-9-99999999-|
A|-7-9-77777777-|
E|-5-7----------|
Tap to rate this tab
# A B C D E F G H I J K L M N O P Q R S T U V W X Y Z