Song name
# A B C D E F G H I J K L M N O P Q R S T U V W X Y Z

Bleached - No Friend Of Mine tab

Bleached - No Friend Of Mine
From their Francis 7" (Ooga Booga 2011).

Tabbed by Isaac Murguia, November 8, 2013.
Originally uploaded to Ultimate-Guitar.com
YouTube: Goadiroth

I'm tabbing only JESSICA's part.
Jennifer's part is all power chords of the chords used here. :)

INTRO:
e|------------|---00-000--0-00-000--0-00-0000-|      |------------|
B|-1----------|---11-111--0-00-000--2-22-2222-|      |-1----------|
G|---2-0------|---00-000--0-00-000--2-22-2222-|      |---2-0------|
D|--------2-0-|---22-222--2-22-222--2-22-2222-|      |--------2-0-|
A|------------|-3-33-333--2-22-222--0-00-0000-|      |------------|
E|------------|-----------0-00-000------------| [x3] |------------|

VERSE:
e|-3-33-333--0-00-000--|
B|-3-33-333--0-00-000--|
G|-4-44-444--0-00-000--|
D|-5-55-555--2-22-222--|
A|-5-55-555--2-22-222--|
E|-3-33-333--0-00-000--| [x8]

CHORUS:
e|-0-00-000--0-00-000--0-00-0000-|------------|
B|-1-11-111--0-00-000--2-22-2222-|-1----------|
G|-0-00-000--0-00-000--2-22-2222-|---2-0------|
D|-2-22-222--2-22-222--2-22-2222-|--------2-0-|
A|-3-33-333--2-22-222--0-00-0000-|------------|
E|-----------0-00-000------------|------------| [x2]

Repeat VERSE [x8]

BRIDGE:
e|-2---0---3-333333-3-333333-|      |-0-000000-0-000000-|
B|-3---2---3-333333-3-333333-|      |-0-000000-0-000000-|
G|-2---2---0-000000-0-000000-|      |-0-000000-0-000000-|
D|-0---2---0-000000-0-000000-|      |-2-222222-2-222222-|
A|-----0---2-222222-2-222222-|      |-2-222222-2-222222-|
E|---------3-333333-3-333333-| [x2] |-0-000000-0-000000-|

Repeat CHORUS [x2]

GUITAR SOLO:
          [x2]
e|----------------------|-----------------------|----------------------|
B|----------------------|-----------------------|----------------------|
G|-4-2-0----------------|-4-2-0--------2b-2b-2b-|-4-2-0----------------|
D|-------2-0----2-222---|-------2-0-------------|-------2-0----2-222---|
A|------------2-------2-|------------2----------|------------2-------2-|
E|----------------------|-----------------------|----------------------|

                                                        [x2]
e|----------------5-5-|--------------------5-5-|-3-33-333--0-00-000-|
B|-------------8\-5-5-|----------------8-\-5-5-|-3-33-333--0-00-000-|
G|-4-2-0---0---9\-----|-4-2-0---0--7/9---------|-4-44-444--0-00-000-|
D|-------2------------|-------2----------------|-5-55-555--2-22-222-|
A|--------------------|------------------------|-5-55-555--2-22-222-|
E|--------------------|------------------------|-3-33-333--0-00-000-|

Repeat CHORUS [x2]
Repeat VERSE [x12]

END CHORD:
e|---3-------|
B|---3-------|
G|---4-------|
D|---5-------|
A|---5-------|
E|---3-------|

End. Please rate! :)
Tap to rate this tab
# A B C D E F G H I J K L M N O P Q R S T U V W X Y Z