Song name
# A B C D E F G H I J K L M N O P Q R S T U V W X Y Z

Bled - Last American Cowboy tab

Help us improve GuitareTab! Take a short survey!
E----------------------------------------------------------------------------|
B----------------------------------------------------------------------------|
G----777----222-3----------------8---10------777----22-3---2------8-10\------|
D-00-777-00-222-3x5-xxxx10101300-8x3-10---00-777-00-22-3x4-2-1110-8-10\------|
A-00-555-00-000-1---xxxx10101300-6----8---00-555-00-00-1---0-1110-6--8\------|
D-00-----00---------xxxx10101300----------00-----00----------1110------------|

-------------------------------------------------------------------------------|
-------------------------------------------------------------------------------|
----777----222-3----------------8---10-----777----22-3---2------8-10\-------10-|h
-00-777-00-222-3x5-xxxx10101300-8x3-10--00-777-00-22-3x4-2-1110-8-10\--00-12---|
-00-555-00-000-1---xxxx10101300-6----8--00-555-00-00-1---0-1110-6--8\--00-12---|
-00-----00---------xxxx10101300---------00-----00----------1110--------00-12---|

------------------------  ----------------------------------------|
------------------------  ----------------------------------------|
-7------------------532-  ----------28627--------753-7532---------|
8-5-7--7--7--10--7--532-x3prechorus-28627-chorus-753-7532---------|
---8-58-58-11--88-5-310-  ----------06405--------531-5310---------|
------------------------  ----------------------------------------|


figure the rest out your self from here if you can
Related for Last American Cowboy tab