Song name
# A B C D E F G H I J K L M N O P Q R S T U V W X Y Z

Bleed From Within - Servants Of Divinity tab

----------------------------------------------------------------------|
----------------------------------------------------------------------|
----------------------------------------------------------------------|
----------------------------------------------------------------------|
---12--12--12--10--10--10--13--13--13--12--12--12/8--8--8--8--7--7--7-|
-88--88--88--88--88--88--88--88--88--88--88--88----55-55-55-55-55-55--|
 ..  ..  ..  ..  ..  ..  ..  ..  ..  ..  ..  ..    .. .. .. .. .. ..
---------------|
---------------|
---------------|
---5--5--5--3-5|  Riff 1-2x
------------3-5|
-55-55-55---3-5|
 .. .. ..
-----------------------------------------------------------------|
-----------------------------------------------------------------|
-----------------------------------------------------------------|
-----------------------------------------------------------------|Riff 2-2x
-8---587-8---587-6---365-6---365--------------------00-0-0-0-8754|
---0-------0-------0-------0-----8--0-587-8--0-587--00-0-0-0-----|
   .       .       .       .        .        .      .. . . .
-----------------------------------------------------------------------|
-----------------------------------------------------------------------|
-----------------------------------------------------------------------|
-----------------------------------------------------------------------|
-00-00-00-00-00000-00-00-00-00-00-ph5-00-00-00-00-00000-00-00-00-875---|
-00-00-00-00-00000-00-00-00-00-00-----00-00-00-00-00000-00-00-00----875|
 .. .. .. .. ..... .. .. .. .. ..     .. .. .. .. ..... .. .. ..-Break down

Riff 1-2x

-------------------------------------------------------------------------|
-------------------------------------------------------------------------|
-------------------------------------------------------------------------|
-------------------------------------------------------------------------|
-00-00-0-5/-0-0-555444-00-00-0-5/-0-0-121212101010-00-00-0-5/-0-0-555444-|
-00-00-0-6/-0-0-888777-00-00-0-6/-0-0-8-8-8-7-7-7--00-00-0-6/-0-0-888777-|
 .. .. .    . .        .. .. .    . .              .. .. .    . .
----------------------------------------|
----------------------------------------|
----------------------------------------|
----------------------------------------| Chorus
-00-00-0-5/-0-0-1212121010101212127-7-7-|
-00-00-0-6/-0-0-8-8-8-7-7-7-8-8-8-101010|
 .. .. .    . .

Riff 2-2x

------------------------------------|
------------------------------------|
------------------------------------|
------------------------------------| Riff 3-4x
---5-5-5--4-4-4--7-7-7--7108--------|
-88-8-8-77-7-7-55-5-5--------000000-|
 .. . . .. . . .. . .        ......

Break down

-----------------------------------------------------------------------------|
-----------------------------------------------------------------------------|
-----------------------------------------------------------------------------|
-----------------------------------------------------------------------------|
-----5555--------------------------------------------------------------------|
-0000----888887777888877775555500003333355556666000001111222244440000--------|

-----------------------------------------------------------------------------|
-----------------------------------------------------------------------------|
-----------------------------------------------------------------------------|
----------------------------------356-----0-8-7-5-7-5-0-3-5-6-0-3-5-6-635----|
-5555--------------------------------356--0-8-7-5-7-5-0-3-5-6-0-1-3-4----635-|
-----88887777888877770000333555666------6-0-8-7-5-7-5-0-3-5-6-0------------6-|

Riff 3-4x

----------------|
----------------|
----------------|
----------------|
-5554446667-7-7-|
-888777999101010

Chorus

-
-
-
-0
-0
-0-end
Tap to rate this tab
# A B C D E F G H I J K L M N O P Q R S T U V W X Y Z