Song name
# A B C D E F G H I J K L M N O P Q R S T U V W X Y Z

Bleed From Within - Servants Of Divinity tab

Artist: Bleed from Within
Song: Servants of Divinity
Tuning: B,F#,B,E,G#,C#

This is my first tab so let me know what you think.

C#||----------------------------------------------------------|
G#||----------------------------------------------------------|
E ||----------------------------------------------------------|
B ||------------------------------8----8----8-----------------|
F#||-12---12---12---10---10---10----------------12---12---12/-|
B ||---8-8--8-8--8----8-8--8-8--8---8-8--8-8--8---8-8--8-8----|
       . .  . .  .    . .  . .  .   . .  . .  .   . .  . .
	
   |---------------------------------------------------|
   |---------------------------------------------------|
   |---------------------------------------------------|
   |-----------------------------5----5----5-----3---5-|X2
   |-8----8----8---7----7----7-------------------3---5-|
   |---5-5--5-5--5---5-5--5-5--5---5-5--5-5--5---3---5-|
       . .  . .  .   . .  . .  .   . .  . .  .     

C#||-------------------------------------------------------------|
G#||-------------------------------------------------------------|
E ||-------------------------------------------------------------|
B ||-------------------------------------------------------------|
F#||-5---4-8-7-----5----4-8-7-----4----4-5-4-----4-----5-7-8-----|
B ||--0-0------0-0---0-0------0-0---0-0------0-0---0-0-------0-0-|
      . .      . .   . .      . .   . .      . .   . .       . .   
  
   |-------------------------------------------------------------|
   |-------------------------------------------------------------|
   |-------------------------------------------------------------|X2 
   |---------------------------------0-0--0--0--0----------------|
   |---------------------------------0-0--0--0--0----------------|
   |-8-0-0-5-7-8-0-0-8-0-0-5-7-8-0-0-0-0--0--0--0--8-0-7-0-5-0-3-|
       . .       . .   . .       . . . .  .  .  .  . . . . . . .   

C#||------------------------------------------------------------|
G#||------------------------------------------------------------|
E ||------------------------------------------------------------|
B ||------------------------------------------------------------|
F#||--0-0--0-0--0-0--0-0--0-0-0-0---0-0--0-0--0-0--0-0--0-0--5*-|
B ||--0-0--0-0--0-0--0-0--0-0-0-0---0-0--0-0--0-0--0-0--0-0-----|
      . .  . .  . .  . .  . . . .   . .  . .  . .  . .  . .  

   |--------------------------------------------------------------|
   |--------------------------------------------------------------|
   |--------------------------------------------------------------| 
   |----------------------------------------------7-5-------------|
   |--0-0--0-0--0-0--0-0--0-0-0-0---0-0--0-0--0-0-----8-7-8-7-8-4-|
   |--0-0--0-0--0-0--0-0--0-0-0-0---0-0--0-0--0-0-----------------|
      . .  . .  . .  . .  . . . .   . .  . .  . .    

C#||----------------------------------------------------------|
G#||----------------------------------------------------------|
E ||----------------------------------------------------------|
B ||------------------------------8----8----8-----------------|
F#||-12---12---12---10---10---10----------------12---12---12/-|
B ||---8-8--8-8--8----8-8--8-8--8---8-8--8-8--8---8-8--8-8----|
       . .  . .  .    . .  . .  .   . .  . .  .   . .  . .

   |---------------------------------------------------|
   |---------------------------------------------------|
   |---------------------------------------------------|
   |-----------------------------5----5----5-----3---5-|X2
   |-8----8----8---7----7----7-------------------3---5-|
   |---5-5--5-5--5---5-5--5-5--5---5-5--5-5--5---3---5-|
       . .  . .  .   . .  . .  .   . .  . .  .     

C#||----------------------------------------------------------------------|
G#||----------------------------------------------------------------------|
E ||----------------------------------------------------------------------|
B ||----------------------------------------------------------------------|X2
F#||-0-0-0-0---0--12/0--5-5-5-4-4-4--0-0-0-0---0--12/0--12-12-12-10-10-10-|
B ||-0-0-0-0---0--12/0--8-8-8-7-7-7--0-0-0-0---0--12/0--8--8--8--7--7--7--|
     . . . .   .                     . . . .   .     

   |---------------------|
   |---------------------|
   |---------------------|
   |---------------------|
   |--12-12-12-13-13-13--|
   |--8--8--8--10-10-10--|

C#||-------------------------------------------------------------|
G#||-------------------------------------------------------------|
E ||-------------------------------------------------------------|
B ||-------------------------------------------------------------|
F#||-5---4-8-7-----5----4-8-7-----4----4-5-4-----4-----5-7-8-----|
B ||--0-0------0-0---0-0------0-0---0-0------0-0---0-0-------0-0-|
      . .      . .   . .      . .   . .      .  .  . .       . .   
  
   |-------------------------------------------------------------|
   |-------------------------------------------------------------|
   |-------------------------------------------------------------|X2 
   |---------------------------------0-0--0--0--0----------------|
   |---------------------------------0-0--0--0--0----------------|
   |-8-0-0-5-7-8-0-0-8-0-0-5-7-8-0-0-0-0--0--0--0--8-0-7-0-5-0-3-|
       . .       . .   . .       . . . .  .  .  .  . . . . . . .   
C#||---------------------------------------------|
G#||---------------------------------------------|
E ||---------------------------------------------|
B ||---------------------------------------------|X3
F#||-5-5-5-5-4-4-4-4-7-7-7-7-10-8----------------|
B ||--8-8-8-8-7-7-7-7-5-5-5-------0-0-0-0-0-0-0--|
      . . . . . . . . . . .       . . . . . . .   

C#||-------------------|
G#||-------------------|
E ||-------------------|
B ||-------------------|
F#||-5-5-5-5-4-4-4-4---|
B ||--8-8-8-8-7-7-7-7--|
      . . . . . . . .

C#||-------------------------------------------------------------|
G#||-------------------------------------------------------------|
E ||-------------------------------------------------------------|
B ||-------------------------------------------------------------|
F#||--0-0--0-0--0-0--0-0--0-0-0-0---0-0--0-0--0-0--0-0--0-0---5*-|
B ||--0-0--0-0--0-0--0-0--0-0-0-0---0-0--0-0--0-0--0-0--0-0------|
      . .  . .  . .  . .  . . . .   . .  . .  . .  . .  . .  

   |--------------------------------------------------------------|
   |--------------------------------------------------------------|
   |--------------------------------------------------------------| 
   |----------------------------------------------7-5-------------|
   |--0-0--0-0--0-0--0-0--0-0-0-0---0-0--0-0--0-0-----8-7-8-7-8-4-|
   |--0-0--0-0--0-0--0-0--0-0-0-0---0-0--0-0--0-0-----------------|
      . .  . .  . .  . .  . . . .   . .  . .  . .    
 
C#||----------------------------------------|
G#||----------------------------------------|
E ||----------------------------------------|
B ||----------------------------------------|X2
F#||-------555------------------------------|
B ||-000000---88877700033444666333444666777-|

C#||-------------------------------------------|
G#||-------------------------------------------|
E ||-------------------------------------------|
B ||--------7----------------------------------|X2
F#||-0------5---8--7-----0--3-4-6---3-4-6-7--0-|
B ||-0----------8--7-----0--3-4-6---3-4-6-7--0-|

C#||--------------------|
G#||--------------------|
E ||--------------------| 
B ||--7-5---------------|
F#||------8-7-8-7-8-4---|
B ||--------------------|

C#||---------------------------------------------|
G#||---------------------------------------------|
E ||---------------------------------------------|
B ||---------------------------------------------|X4
F#||-5-5-5-5-4-4-4-4-7-7-7-7-10-8----------------|
B ||--8-8-8-8-7-7-7-7-5-5-5-------0-0-0-0-0-0-0--|
      . . . . . . . . . . .       . . . . . . .   

C#||------------------------------------------|
G#||------------------------------------------|
E ||------------------------------------------|
B ||------------------------------------------|
F#||--12-12-12-10-10-10-10-12-12-12-13-13-13--|
B ||--8--8--8--7--7--7--7--8--8--8--10-10-10--|

C#||----------------------------------------------------------------------|
G#||----------------------------------------------------------------------|
E ||----------------------------------------------------------------------|
B ||----------------------------------------------------------------------|X2
F#||-0-0-0-0---0--12/0--5-5-5-4-4-4--0-0-0-0---0--12/0--12-12-12-10-10-10-|
B ||-0-0-0-0---0--12/0--8-8-8-7-7-7--0-0-0-0---0--12/0--8--8--8--7--7--7--|
     . . . .   .                     . . . .   .     

C#||--------------------------||
G#||--------------------------||
E ||--------------------------||
B ||---------------------0~---||
F#||--12-12-12-13-13-13--0~---||
B ||--8--8--8--10-10-10--0~---||

Tap to rate this tab
 
# A B C D E F G H I J K L M N O P Q R S T U V W X Y Z