Song name
# A B C D E F G H I J K L M N O P Q R S T U V W X Y Z

Bleed From Within - Servants Of Divinity tab

Servants of Divinity by Bleed From Within
Tuning: Drop B

This is how Goonzi(Bleed From Within's guitarist) plays the song in 
this video  http://www.youtube.com/watch?v=j1LQ6cIFKpw
I wouldn't say this is %100 cause I'm not the best at figuring out
songs by watching videos, but this is the best I could do with the
amount of interest I have, great band, great song, support em so we
can get em to play in the U.S.

        Part One: X2
||----------------------------------------------------------------------|
||----------------------------------------------------------------------|
||----------------------------------------------------------------------|
||----------------------------------------------------------------------|
||-12---12---12---10---10---10---13---13---13---12---12---12/8---8---8--|
||---8-8--8-8--8----8-8--8-8--8----8-8--8-8--8----8-8--8-8----5-5-5-5-5-|
     . .  . .  .    . .  . .  .    . .  . .  .    . .  . .    . . . . .
        
|--------------------------------||
|--------------------------------||
|--------------------------------|| 
|-------------5---5---5----3---5-||
|-7---7---7----------------3---5-||
|--5-5-5-5-5---5-5-5-5-5---3---5-||
   . . . . .   . . . . .     


        Part Two: X2
||------------------------------------------------------------------------------|
||------------------------------------------------------------------------------|
||------------------------------------------------------------------------------|
||------------------------------------------------------------------------------|
||-8---5-8-7---8---5-8-7---4---4-7-5---4---4-5-7--------------------------------|
||--0-0-----0-0-0-0-----0-0-0-0-----0-0-0-0-----0-0-8-0-0-5-7-8-0-0-8-0-0-5-7-8-|
    . .     . . . .     . . . .     . . . .     . .   . .       . .   . .
  
|----------------------------||
|----------------------------||
|----------------------------||
|-0-0--0--0--0---------------||
|-0-0--0--0--0---------------||
|-0-0--0--0--0-8-0-7-0-5-0-3-||
  . .  .  .  .   .   .   .   


        Part Three:
||------------------------------------------------------------------|
||------------------------------------------------------------------|
||------------------------------------------------------------------|
||------------------------------------------------------------------|
||-0-0--0-0--0-0--0-0--0-0-0-0-0-0-0-0--0-0--0-0--0-0--0-0--0-0--3*-|
||-0-0--0-0--0-0--0-0--0-0-0-0-0-0-0-0--0-0--0-0--0-0--0-0--0-0-----|
   . .  . .  . .  . .  . . . . . . . .  . .  . .  . .  . .  . .

|--------------------------------------------------------------------||
|--------------------------------------------------------------------||
|--------------------------------------------------------------------||
|----------------------------------------------------8-7-5---5-------||
|-0-0--0-0--0-0--0-0--0-0-0-0-0-0-0-0--0-0--0-0--0-0-------8---8-7-8-||
|-0-0--0-0--0-0--0-0--0-0-0-0-0-0-0-0--0-0--0-0--0-0-----------------||
  . .  . .  . .  . .  . . . . . . . .  . .  . .  . .

 
Part One: X2


        Part Four:
||------------------------------------------------------------------|
||------------------------------------------------------------------|
||------------------------------------------------------------------|X2
||-------------7/0---------------------------7/0--------------------|
||-0-0-0-0--0--5/0--5-5-5-4-4-4--0-0-0-0--0--5/0--12-12-12-10-10-10-|
||-0-0-0-0--0--7/0--8-8-8-7-7-7--0-0-0-0--0--7/0--8--8--8--7--7--7--|
   . . . .  .                    . . . .  .     

        Part Four Ending:
|-------------------||
|-------------------||
|-------------------||
|-------------------||
|-12-12-12-7--7--7--||
|-8--8--8--10-10-10-||


Part Two: X2


        Part Five: X3
||--------------------------------------------------------|
||--------------------------------------------------------|
||--------------------------------------------------------|
||--------------------------------------------------------|
||-5-5-5-5-4-4-4-4--5-6--7-7-7-7-10-8---------------------|
||--8-8-8-8-7-7-7-7-----3-3-3-3-------0-0-0-0-0-0-0-0-0-0-|
    . . . . . . . .     . . . .       . . . . . . . . . . 

        Part Five A:
|------------------------||
|------------------------||
|------------------------||
|------------------------||
|-5-5-5-5-4-4-4-4--5-6/0-||
|--8-8-8-8-7-7-7-7-------||
   . . . . . . . .


Part Three


        Part Six:
||-----------------------------------------------------------------------------|
||-----------------------------------------------------------------------------|
||-----------------------------------------------------------------------------|
||-------------------------------------------------------------8-7-5---5-------|
||----t5-------------------------t1-t3----t5-------------------------8---8-7-8-|
||-t0----t8-t7-t0-t4-t5/t7-t1-t4-------t0----t8-t7-t0-t4-t5/t7-----------------|

||-----------------------------------------------------------|
||-----------------------------------------------------------|
||-----------------------------------------------------------|
||---7------------------3-5---7--------------8-7-5---5-------|
||-0-5-8-7-0-4-5/-7-1-4-1-3-0-5-8-7-0-4-5/-7-------8---8-7-8-|
||-0---8-7-0-4-5/-7-1-4-----0---8-7-0-4-5/-7-----------------|


Part Five: X4  


        Part Seven:
||------------------------------------------|
||------------------------------------------|
||------------------------------------------|
||------------------------------------------|
||--12-12-12-10-10-10-10-12-12-12-7--7--7---|
||--8--8--8--7--7--7--7--8--8--8--10-10-10--|


Part 4


End On:
||----||
||----||
||----||
||-0~-||
||-0~-||
||-0~-||
Tap to rate this tab
 
# A B C D E F G H I J K L M N O P Q R S T U V W X Y Z