Guitaretab - guitar tabs
Song name
# A B C D E F G H I J K L M N O P Q R S T U V W X Y Z

Bleed The Dream - Sarcastic Farewell tab

|--------------------------------------------|
|----Bleed the Dream - Sarcastic Farewell----|
|--------------------------------------------|

okay this is only the beginning of the song. im working on the rest of it and it should
be up soon. here you go.

tuning- drop d
[ Tab from: http://www.guitaretab.com/b/bleed-the-dream/59690.html ]
|---------------------|-----------------|-------------|-------------|
|---------------------|-----------------|-------------|-------------|
|---------6-----------|-------6---------|-------6-----|-------6-----|
|------6---6-6--------|-----6--6-6------|-----6--6-6--|-----6--6-6--|
|--4-4---4--4---------|-----------------|-------------|-------------|
|---------------------|--6-6-6--6-------|--4-4-4--4---|--6-6-6--6---|

|---------------------|-----------------|-------------|---------|
|---------------------|-----------------|-------------|---------|
|---------6-----------|-------6---------|-------6-----|---------|
|------6---6-6--------|-----6--6-6------|-----6--6-6--|---------|
|--4-4---4--4---------|-----------------|-------------|---------|
|---------------------|--6-6-6--6-------|--4-4-4--4---|--6~~~~~~|

well, thats it for now.
Related for Sarcastic Farewell tab
×
Sarcastic Farewell