Guitaretab - guitar tabs
Song name
# A B C D E F G H I J K L M N O P Q R S T U V W X Y Z

Bleed The Dream - Overcrowded Room tab

Band- Bleed The Dream
Song- Overcrowded Room
Album- Awake
Tabber- array45


this is a great song by Bleed the Dream. i really like it and its fun to play.

standard tuning


------------------------------------------------|
------------------------------------------------|
------------------------------------------------|
------------------------------------------------|
--------6---6-----8-----6---6-------------------|
----6-6---6---6-6---6-6---6---6-----------------|
pm  . . . . . . . . . . . . . .

------------------------------------------------|
------------------------------------------------|
------------------------------------------------|
------------------------------------------------|
--------6---6-----8-----6---6-------------------|
----4-4---4---4-4---4-4---4---4-----------------|
pm  . . . . . . . . . . . . . .

-------------------------------------------------|
-------------------------------------------------|
-------------------------------------------------|
-------------------------------------------------|
--------4---4-----6-----4---4--------------------|
----2-2---2---2-2---2-2---2---2------------------|
pm  . . . . . . . . . . . . . .

-------------------------------------------------|
-------------------------------------------------|
-------------------------------------------------|
-------------------------------------------------|
--------4---4-----6-----4---4--------------------|
----0-0---0---0-0---0-0---0---0------------------|
pm  . . . . . . . . . . . . . .

------------------|
------------------|
-----8---10---8---|
--6--x---x----x---|
--6--6---8----6---|
--4---------------|

------------------|
------------------|
-----10--8--------|
--6--x---x--------|
--6--8---6--------|
--4---------------|

------------------|
------------------|
-----8--6---------|
--4--x--x---------|
--4--6--4---------|
--2---------------|

------------------|
------------------|
-----6--8--6------|
--4--x--x--x------|
--4--4--6--4------|
--2---------------|

------------------------------------------------|
------------------------------------------------|
------------------------------------------------|
------------------------------------------------|
--------6---6-----8-----6---6-------------------|
----6-6---6---6-6---6-6---6---6-----------------|
pm  . . . . . . . . . . . . . .

------------------------------------------------|
------------------------------------------------|
------------------------------------------------|
------------------------------------------------|
--------6---6-----8-----6---6-------------------|
----4-4---4---4-4---4-4---4---4-----------------|
pm  . . . . . . . . . . . . . .

-------------------------------------------------|
-------------------------------------------------|
-------------------------------------------------|
-------------------------------------------------|
--------4---4-----6-----4---4--------------------|
----2-2---2---2-2---2-2---2---2------------------|
pm  . . . . . . . . . . . . . .

-------------------------------------------------|
-------------------------------------------------|
-------------------------------------------------|
-------------------------------------------------|
--------4---4-----6-----4---4--------------------|
----0-0---0---0-0---0-0---0---0------------------|
pm  . . . . . . . . . . . . . .

------------------------|
------------------------|
------------------------|
------------------------|
--8--8/10--10/11--11/13-|
--6--6/8----8/9----9/11-|

---x----------------|
---x----------------|
---x----------------|
---x----------------|
---x------pickslide-|
---x----------------|

------------------|
------------------|
-----8---10---8---|
--6--x---x----x---|
--6--6---8----6---|
--4---------------|

------------------|
------------------|
-----10--8--------|
--6--x---x--------|
--6--8---6--------|
--4---------------|

------------------|
------------------|
-----8--6---------|
--4--x--x---------|
--4--6--4---------|
--2---------------|

------------------|
------------------|
-----6--8--6------|
--4--x--x--x------|
--4--4--6--4------|
--2---------------|
[ Tab from: http://www.guitaretab.com/b/bleed-the-dream/62161.html ]
------------------|
------------------|
-----8---10---8---|
--6--x---x----x---|
--6--6---8----6---|
--4---------------|

------------------|
------------------|
-----10--8--------|
--6--x---x--------|
--6--8---6--------|
--4---------------|

------------------|
------------------|
-----8--6---------|
--4--x--x---------|
--4--6--4---------|
--2---------------|

------------------|
------------------|
-----6--8--6------|
--4--x--x--x------|
--4--4--6--4------|
--2---------------|

------------------------------------------------|
------------------------------------------------|
------------------------------------------------|
------------------------------------------------|
--------6---6-----8-----6---6-------------------|
----6-6---6---6-6---6-6---6---6-----------------|
pm  . . . . . . . . . . . . . .

------------------------------------------------|
------------------------------------------------|
------------------------------------------------|
------------------------------------------------|
--------6---6-----8-----6---6-------------------|
----4-4---4---4-4---4-4---4---4-----------------|
pm  . . . . . . . . . . . . . .

-------------------------------------------------|
-------------------------------------------------|
-------------------------------------------------|
-------------------------------------------------|
--------4---4-----6-----4---4--------------------|
----2-2---2---2-2---2-2---2---2------------------|
pm  . . . . . . . . . . . . . .

-------------------------------------------------|
-------------------------------------------------|
-------------------------------------------------|
-------------------------------------------------|
--------4---4-----6-----4---4--------------------|
----0-0---0---0-0---0-0---0---0------------------|
pm  . . . . . . . . . . . . . .

------------------------|
------------------------|
------------------------|
------------------------|
--8--8/10--10/11--11/13-|
--6--6/8----8/9----9/11-|

---x----------------|
---x----------------|
---x----------------|
---x----------------|
---x------pickslide-|
---x----------------|

------------------|
------------------|
-----8---10---8---|
--6--x---x----x---|
--6--6---8----6---|
--4---------------|

------------------|
------------------|
-----10--8--------|
--6--x---x--------|
--6--8---6--------|
--4---------------|

------------------|
------------------|
-----8--6---------|
--4--x--x---------|
--4--6--4---------|
--2---------------|

------------------|
------------------|
-----6--8--6------|
--4--x--x--x------|
--4--4--6--4------|
--2---------------|

------------------|
------------------|
-----8---10---8---|
--6--x---x----x---|
--6--6---8----6---|
--4---------------|

------------------|
------------------|
-----10--8--------|
--6--x---x--------|
--6--8---6--------|
--4---------------|

------------------|
------------------|
-----8--6---------|
--4--x--x---------|
--4--6--4---------|
--2---------------|

------------------|
------------------|
-----6--8--6------|
--4--x--x--x------|
--4--4--6--4------|
--2---------------|

------------------|
------------------|
-----8---10---8---|
--6--x---x----x---|
--6--6---8----6---|
--4---------------|

------------------|
------------------|
-----10--8--------|
--6--x---x--------|
--6--8---6--------|
--4---------------|

------------------|
------------------|
-----8--6---------|
--4--x--x---------|
--4--6--4---------|
--2---------------|

------------------|
------------------|
-----6--8--6------|
--4--x--x--x------|
--4--4--6--4------|
--2---------------|

------------------|
------------------|
-----8---10---8---|
--6--x---x----x---|
--6--6---8----6---|
--4---------------|

------------------|
------------------|
-----10--8--------|
--6--x---x--------|
--6--8---6--------|
--4---------------|

------------------|
------------------|
-----8--6---------|
--4--x--x---------|
--4--6--4---------|
--2---------------|

------------------|
------------------|
------------------|
--4~~~~~~~~~~-----|
--4~~~~~~~~~~-----|
--2~~~~~~~~~~-----|


thats the song. i didnt show how many times you have to play everything but its easy to 
out. just listen to the song.
Related for Overcrowded Room tab
Overcrowded Room chords by Bleed The Dream