Guitaretab - guitar tabs
Song name
# A B C D E F G H I J K L M N O P Q R S T U V W X Y Z

Bleed The Dream - Should Have Known tab

-----------------------------------------------------------------------------
			     Should Have Known - Bleed the Dream
-----------------------------------------------------------------------------

Tabbed by: kiefermatot

Email: bamcky2k_69@hotmail.com

Tuning: Drop-D

I should have known...

Intro/Chorus:  Listen for the rythem.
E|---------------------------------------|
B|---------------------------------------|
G|-11-11-11-11-11-11-11-11-11-11-11-11---|
D|-11-11-11-11-11-11-11-11-11-11-11-11---|
A|-9--9--9--9--9--9--9--9--9--9--9--9----|
D|-9--9--9--9--9--9--9--9--9--9--9--9----|2x


E|----------------------------|----------------|   _
B|----------------------------|----------------|    |  
G|-8-8-8-8-8-8-8-8-8-8-8-8----|----------------|    |
D|-8-8-8-8-8-8-8-8-8-8-8-8----|-666-888-999----|    |---2x play last part after second time.
A|-6-6-6-6-6-6-6-6-6-6-6-6----|-666-888-999----|    |
D|-6-6-6-6-6-6-6-6-6-6-6-6--2x|-666-888-999----|   _|
[ Tab from: http://www.guitaretab.com/b/bleed-the-dream/64914.html ]
Verse 1: Rythem is pretty simple.
E|-----------------------------------------------------------|
B|-----------------------------------------------------------|
G|-----------------------------------------------------------|
D|-9999-9999-99999999-9999-9999-8888-8888-88888888-8888-8888-|
A|-9999-9999-99999999-9999-9999-6666-6666-66666666-6666-6666-|
D|-9999-9999-99999999-9999-9999-6666-6666-66666666-6666-6666-|2x

Verse 2: Guitars differ.
Guitar 1:
E|---------------------|
B|---------------------|
G|---------------------|
D|-----9-------9-------|
A|--9-9-9-9-9-9-9-9----|
D|-9-9---9---9---9-----|8x

Guitar 2:
E|---------------------------------------|
B|-------11--------------11--------------|
G|---------11--11--11--11--11--11--------|
D|--11-11----11------11------11----------|
A|-9--9----------------------------------|
D|---------------------------------------|8x ring out chord every 2 times.

Build up with the B chord (9-9-11-11-x-x)

Chorus
Verse
Verse 2
Chorus


E|----------------------------------------|
B|----------------------------------------|
G|----------------------------------------|
D|---6--8--9----11-13-11-9999999999999999-|
A|--6--8--9---11---13-11-9999999999999999-|
D|-6--8--9--11-----13-11-9999999999999999-|4x

Chorus

Cut last chord in chorus short.


| /  slide up
| \  slide down
| h  hammer-on
| p  pull-off
| ~  vibrato
| +  harmonic
| x  Mute note
=============================================================================
Related for Should Have Known tab
Advertisement will be closed in 10 seconds