Song name
# A B C D E F G H I J K L M N O P Q R S T U V W X Y Z

Bleed The Dream - Jack And White tab

Tunings a half step down. Make sure you do that so it sounds right.

INTRO- The 2 slides here are in the background
Eb-------3--------2s3------------3-----3p2------3----------3---5s7-------3---|
Bb---------3-----------------------3----------3------1-1-1---3-----1-1-1---3-|
Gb---------------------------------------------------------------------------|
Db---------------------------------------------------------------------------|
Ab---------------------------------------------------------------------------|
Eb---0-----------------------0-----------------------------------------------|

Eb-------3-----------3-----3p2----3----------3---------------3---------3-----|
Bb---------3--------------3---------3---1-1-1----3----1-1-1----3---3-----3---|
Gb---------------------------------------------------------------0---0-----0-|
Db---------------------------------------------------------------------------|
Ab---------------------------------------------------------------------------|
Eb---0--------------0--------------------------------------------------------|

VERSE Repeat twice
Eb-------3-----------3-----3p2----3----------3---------------3---------3-----|
Bb---------3--------------3---------3---1-1-1----3----1-1-1----3---3-----3---|
Gb---------------------------------------------------------------0---0-----0-|
Db---------------------------------------------------------------------------|
Ab---------------------------------------------------------------------------|
Eb---0--------------0--------------------------------------------------------|

Pre-Chorus
Listen to song for exact strumming
     A5        B5  C5
Eb--------------------------------------------------------------------------|
Bb--------------------------------------------------------------------------|
Gb--------------------------------------------------------------------------|
Db-2--2--2--2--4---5--5--5--5--5--5-----------------------------------------|
Ab-0--0--0--0--2---3--3--3--3--3--3-----------------------------------------|
Eb--------------------------------------------------------------------------|


Eb----3--3--3--3--3--3--3--3--3--3--3--3------------------------------------|
Bb----3--3--3--3--3--3--3--3--3--3--3--3------------------------------------|
Gb----5--5--5--5--5--5--0--0--0--0--0--0------------------------------------|
Db----5--5--5--5--5--5------------------------------------------------------|
Ab----3--3--3--3--3--3------------------------------------------------------|
Eb--------------------------------------------------------------------------|

Everything else repeats in the rest of the song.

This is the ending with electric guitar with effects.

Eb--------------------------------------------------------------------------|
Bb----10-10-10--8-8-8--7-7-7--8-8-8-8-8-8-----------------------------------|
Gb--------------------------------------------------------------------------|
Db--------------------------------------------------------------------------|
Ab--------------------------------------------------------------------------|
Eb--------------------------------------------------------------------------|
Tap to rate this tab
# A B C D E F G H I J K L M N O P Q R S T U V W X Y Z