Song name
# A B C D E F G H I J K L M N O P Q R S T U V W X Y Z

Bleed The Sky - Killtank tab

Riff 1
|-----------------------------------------------------------------|
|-----------------------------------------------------------------|
|-----------------------------------------------------------------|
|-4---------------4---------------4---------------4---------------|
|-2---3-2---0-2-3-2---3-2---0-2-3-2---3-2---0-2-3-2---3-2---0-2-3-|
|-----3-2---0-2-3-----3-2---0-2-3-----3-2---0-2-3-----3-2---0-2-3-|

Riff 2
|-----------------------------------------------------------------|
|-----------------------------------------------------------------|
|-----------------------------------------------------------------|
|-4---------------4---------------4---------------4---------------|
|-2---3-2---0-2-3-2---3-2-0-2-3*--2---3-2---0-2-3-2---3-2-0-2-3*--|
|-----3-2---0-2-3-----3-2-0-2---------3-2---0-2-3-----3-2-0-2-----|
      - -   - - -     - - - -         - -   - - -     - - - -

Breakdown
(This riff loops back around so that the ending two chugs and the beginning two sound 
like a group of four)
|--------------------------------------------------------|
|--------------------------------------------------------|
|-----------7-7-7-7-7-7----------------------------------|
|--------------------------------------------------------|
|-0-0---0-0-5-5-5-5-5-5-0-0---0-0---0-0---0-0---0-0---0-0|
|-0-0---0-0-------------0-0---0-0---0-0---0-0---0-0---0-0|
  - -   - -             - -   - -   - -   - -   - -   - -
|-----------------------------------------------|
|-----------------------------------------------|
|-----------7-7-7-7-10-10-10-10-12-12-12-12-8-8-|
|-----------------------------------------------|
|-0-0---0-0-5-5-5-5-8--8--8--8--10-10-10-10-6-6-|
|-0-0---0-0-------------------------------------|
  - -   - -

Chorus
|----------------------------------------------------|
|----------------------------------------------------|
|----------------------------------------------------|
|----------------------------------------------------|
|-3-----5-----1-------------3-----6-----6------------|
|-3-----5-----1-------------3-----6-----6------------|

Riff 5
|-----------------------------------|
|-----------------------------------|
|-------6-6-6-6-6-5-5-5-5-----------|
|-----------------------------------|
|-00000-4-4-4-4-4-3-3-3-3-00001-----|
|-00000-------------------00001-----|
  -----                   ----------|
Tap to rate this tab
# A B C D E F G H I J K L M N O P Q R S T U V W X Y Z