Song name
# A B C D E F G H I J K L M N O P Q R S T U V W X Y Z

Bleeders - She Screamed She Loved Me tab

She Sreamed She Loved Me:Bleeders

Tuning:Drop Db

Db Ab Db Gb Bb Eb

~ = let the note ring
*#* = pinch harmonic
/ = slide up
\ = slide down
h = hammer on
p = pull off
b = bend

*Intro* (Quiet Distortion)
riff 1
Eb|------------------------------------------------------------|
Bb|---------------------------------------------------------3~-|
Gb|----7-----7-----7-----7-----7-----7-----7-----7-----7----2~-|
Db|------7-----7-----7-----7-----7-----7-----7-----7-----7--0~-|
Ab|---------------------------------------------------------0~-|
Db|--0-----0-----0~----8-----8-----8~----5-----5-----5~-----0~-|

riff 2
Eb|----------------------------------------------------------------|
Bb|-------------------------------------------------------------3~-|
Gb|-5/7----7-----7-----7-----7-----7-----7-----7-----7-----7----2~-|
Db|-5/7------7-----7-----7-----7-----7-----7-----7-----7-----7--0~-|
Ab|-------------------------------------------------------------0~-|
Db|------0-----0-----0~----8-----8-----8~----5-----5-----5~-----0~-|

riff 3
Eb|-------------------------------------------------------------------------|
Bb|----------------------------------------------------------------------3~-|
Gb|-5/7---7-----7/10-9----9h10----10------10/12-10-9----7-----7-----7----2~-|
Db|-5/7-----7----------10-----------10--------------------7-----7-----7--0~-|
Ab|----------------------------------------------------------------------0~-|
Db|-----0-----0-----------------8-------8-------------5-----5-----5------0~-|

*Verse*
riff 4 x1
Eb|-------------------------------------------------------------------------|
Bb|-------------------------------------------------------------------------|
Gb|-------------------------------------------------------------------------|
Db|--7~-------------6~-------------7~-------------6~------------------------|
Ab|--5~-0-0-0-0-0-0-6~-0-0-0-0-0-0-5~-0-0-0-0-0-0-6~-0-0-0-0-0-0-6-5--------|
Db|-----0-0-0-0-0-0-6~-0-0-0-0-0-0----0-0-0-0-0-0-6~-0-0-0-0-0-0-6-5-*3*----|

then...
 riff 5 x5
Eb|-------------------------------------------------------------------------|
Bb|-------------------------------------------------------------------------|
Gb|-------------------------------------------------------------------------|
Db|--7~-------------6~-------------7~-------------6~------------------------|
Ab|--5~-0-0-0-0-0-0-6~-0-0-0-0-0-0-5~-0-0-0-0-0-0-6~-0-0-0-0-0-0-6-5-3------|
Db|-----0-0-0-0-0-0-6~-0-0-0-0-0-0----0-0-0-0-0-0-6~-0-0-0-0-0-0-6-5-3------|

*Chorus*

Eb|----------------------------------------------|
Bb|----------------------------------------------|
Gb|----------------------------------------------|
Db|-----0--10-10\9-7/9-5-5-7-5--3-3-3-5-3-0-3-0--|
Ab|-----0--8--8-\7-5/7-3-3-5-3--3-3-3-5-3-0-3-0--| x4
Db|-----0-----------------------3-3-3-5-3-0-3-0--|

then back to riff 5 (And 2nd time chorus comes round go to bridge)

*Bridge*

Eb|-------------------------------------------------------|
Bb|-------------------------------------------------------|
Gb|-------------------------------------------------------|
Db|-------------------------------------------------------|
Ab|-0-0h1p0-1h3-0-0-0h1p0-1h3-0-0-0h1p0-1h3-0-4-4-4-4-4-4-| x6
Db|-0-0h1p0-1h3-0-0-0h1p0-1h3-0-0-0h1p0-1h3-0-4-4-4-4-4-4-|

*Guitar Solo Part*

(this comes on the 5th time the bridge plays)

Eb|--10----------10----------13---------------------------|
Gb|--13b15-(x15)-13b15-(x8)--16b18-(x6)-------------------|
Bb|-------------------------------------------------------|
Db|-------------------------------------------------------|
Ab|-------------------------------------------------------| x2
Db|-------------------------------------------------------|

*Now Back To The Chorus*

*Chorus*

Eb|----------------------------------------------|
Bb|----------------------------------------------|
Gb|----------------------------------------------|
Db|-----0--10-10\9-7/9-5-5-7-5--3-3-3-5-3-0-3-0--|
Ab|-----0--8--8-\7-5/7-3-3-5-3--3-3-3-5-3-0-3-0--| x4
Db|-----0-----------------------3-3-3-5-3-0-3-0--|

*Then The Last Part*

Eb|-------------------------------------------------------|
Bb|-------------------------------------------------------|
Gb|-------------------------------------------------------|
Db|-------------------------------------------------------|
Ab|-0-0h1p0-1h3-0-0-0h1p0-1h3-0-0-0h1p0-1h3-0-4-4-4-4-4-4-| x2
Db|-0-0h1p0-1h3-0-0-0h1p0-1h3-0-0-0h1p0-1h3-0-4-4-4-4-4-4-|

*Then End On*

Eb|---|
Bb|---|
Gb|---|
Db|-0-|
Ab|-0-|
Db|-0-|

Thats It! Sorry I Couldnt Do The Guitar Intro With The
Slide! But I Got Most Of It!

Cheers:Chriz :)
Tap to rate this tab
 
# A B C D E F G H I J K L M N O P Q R S T U V W X Y Z