Guitaretab - guitar tabs
Song name
# A B C D E F G H I J K L M N O P Q R S T U V W X Y Z

Bleeders - A Bleeding Heart tab

A Bleeding Heart Tab By The Bleeders

Hey. Great NZ punk band. Great song. Great.

Intro
Guitar 2
e---------------------------------------------|
b---------------------------------------------|
g-7777777777------------5555555555------------|
d-7777777777-8888888888-5555555555-5555555555-|
a-5555555555-8888888888-3333333333-5555555555-|
e------------6666666666------------5555555555-| Play this 4 Times

Guitar 1  Come in after 1 of Guitar 2s intro
e---------------------------------------------|
b---------------------------------------------|
g-7~--------------------5~--------------------|
d-7~---------8~---------5~---------5~---------|
a-5~---------8~---------3~---------5~---------|
e------------6~--------------------3~---------|

e-----------------------------------------------|
b-----------------------------------------------|
g-12121212121212121212-77777777-101010-99-55555-|
d-----------------------------------------------|
a-10101010101010101010-55555555--8-8-8-77-33333-|
e-----------------------------------------------|

e---------------------------------------------|
b---------------------------------------------|
g-101010-9999999--101010101010----------------|
d----------------------------------X 2 -------|
a--8-8-8-7777777---8-8-8-8-8-8----------------|
e---------------------------------------------|

Verse Both Guitars

e-------------------------------------------------|
b-------------------------------------------------|
g------------------------------------------555555-|
d-77xx-88xx--Repeat as-777777777777-888888-333333-|
a-5555-5555--Necessary-777777777777-888888-333333-|
e----------------------555555555555-666666--------|  X2
[ Tab from: http://www.guitaretab.com/b/bleeders/62397.html ]
Chorus
e-----------------------------------------------------|
b-----------------------------------------------------|
g-777777777777--------------101010101010101010101010--|
d-777777777777-888888888888---------------------------|
a-555555555555-888888888888--8-8-8-8-8-8-8-8-8-8-8-8--|
e--------------666666666666---------------------------|

e-----------------------------------------------------|
b-----------------------------------------------------|
g-121212121212-151515151515---------------------------|
d-----------------------------------------------------|
a-101010101010-131313131313---------------------------|
e-----------------------------------------------------| X2

Verse X1
Chorus

Interlude
e-----------------------------------------------------|
b-----------------------------------------------------|
g-7~-----------------77-7~----------------------------|
d-7~------88-8~------77-7~------88-8~-----------------|
a-5~------88-8~------55-5~------88-8~-----------------|
e---------66-6~-----------------66-6~-----------------|
          ..         ..         ..
e-------------------------------------------------|
b-------------------------------------------------|
g----------------------555555---------------------|
d--777777777777-888888-333333---------------------|
a--777777777777-888888-333333---------------------|
e--555555555555-666666----------------------------|

Chorus

Guitar 1 Only Guitar 2 Plays Nothing
e-------------------------------------------------|
b-10-9-5-7777-5~-10-9-5-10-9-10-12~--X-2----------|
g-------------------------------------------------|
d-------------------------------------------------|
a-------------------------------------------------|
e-------------------------------------------------|

Both Guitars Fade Out Chorus

Rock On
Related for A Bleeding Heart tab
×
Best way to learn
"A Bleeding Heart"