Song name
# A B C D E F G H I J K L M N O P Q R S T U V W X Y Z

Bleeders - Night Sky tab

Bleeders - Night Sky
Standard Tuning

This is an awsome song off their latest album. I havent tabbed the
struming properly, but you should be able to pick it up easily


Into

e|-----------------------------------------------------------|
b|-----------------------------------------------------------|
g|-----------------------------------------------------------|
d|5:---------------------------------------------------------|
a|3:---------------------------------------------------------|
E|-----------------------------------------------------------|

Verse

e|---------------------------------------------------------|
b|---------------------------------------------------------|
g|---------------------------------------------------------|
d|5-5-55-8-8-88---------------5-5-55-8-8-88----------------|
a|3-3-33-6-6-66-6-6-66-9-9-99-3-3-33-6-6-66-6-6-66-4-4-44--|
E|--------------4-4-44-7-7-77---------------4-4-44-2-2-22--|

Chorus

e|---------------------------------------------------------|
b|---------------------------------------------------------|
g|---------------------------------------------------------|
d|5-5-55-8-8-88--------------------------------------------|
a|3-3-33-6-6-66-6-6-66-9-9-99------------------------------|
E|--------------4-4-44-7-7-77------------------------------|

After 1st Chorus

e|---------------------------------------------------------|
b|---------------------------------------------------------|
g|---------------------------------------------------------|
d|---------------------------------------------------------|
a|10-8-6-8-6-8-10-10-8-6-8-6-10-6-10-8-6-8-10-8------------|
E|---------------------------------------------------------|

After 2nd Chorus

e|---------------------------------------------------------|
b|---------------------------------------------------------|
g|---------------------------------------------------------|
d|5:--5----------------------------------------------------|
a|3:--3----------------------------------------------------|
E|---------------------------------------------------------|

After 3rd Chorus

Guitar 1

e|---------------------------------------------------------|
b|---------------------------------------------------------|
g|---------------------------------------------------------|
d|5-5-8-8---------5-5-8-8----------------------------------|
a|3-3-6-6-6-6-9-9-3-3-6-6-6-6-4-4--------------------------|
E|--------4-4-7-7---------4-4-2-2--------------------------|

Guitar 2

e|---------------------------------------------------------|
b|---------------------------------------------------------|
g|---------------------------------------------------------|
d|---------------------------------------------------------|
a|10-8-6-8-6-8-10-10-8-6-8-6-10-6-10-8-6-8-10-8------------|
E|---------------------------------------------------------|

Outro

e|---------------------------------------------------------|
b|---------------------------------------------------------|
g|---------------------------------------------------------|
d|5:-------------------------------------------------------|
a|3:-------------------------------------------------------|
E|---------------------------------------------------------|

Bridge - Unsure, but you can just play the bass line, which is the verse

: = Let Ring

Struct

Verse 1
Chours 1
After Chours 1
Verse 2
Chours 2
After Chorus 2
Bridge
Chorus 3
After Chorus 3
Chorus 4
Tap to rate this tab
# A B C D E F G H I J K L M N O P Q R S T U V W X Y Z