Song name
# A B C D E F G H I J K L M N O P Q R S T U V W X Y Z

Bleeding Knees Club - Lipstick tab

All chords are barred

[Intro]

A
So uh, me and Betty were hangin' out by the bleachers and
F#
It was a Saturday night, and the stars were out
D
I reached for her hand and I, I held it tight
E
Oh boy I held her hand with all my might
A
I looked at her and, I couldn't help but smile
F#
I knew I could hang out with her for a little while
D
So I moved in closer and I, I took a chance
E
And I asked this girl, "Can I have this dance?"

[Verse 1]

A
Hey girls, come on down
F#
Put on your shoes, and gather 'round
D                                  A       E
Oh yeah, it's fine to dance with me
A
I don't mind, how you move
F#
As long as you're lookin' smooth
D                                  A       E
Oh yeah, it's fine to dance with me

[Chorus]

D
We can swing, all night long
A
Underneath the stars
D
And when, the night's over
E
We'll make out in our cars

[Verse 2]

A
Oh boy, you'd better watch out
F#
I think you know what you're talkin' about
D                                   A      E
Oh yeah, it's fine to dance with me
A
We can get, down real low
F#
We can move, oh so slow
D                                  A      E
Oh yeah, it's fine to dance with me

[Chorus]

D
We can swing, all night long
A
Underneath the stars
D
And when, the night's over
E
We'll make out in our cars

[Bridge]

A | E | A | E | A | E | A | E

Solo:

e----------------------------------------------------------------------------------|
B--5----7-5---7-5------------------------------------------------------------------|
G------------------4--6----7-6--7-6-4------4-----6-6---4----4-6-4-6-4--------------|
D--------------------------------------7-----7--4----------------------------------|
A----------------------------------------------------------------------------------|
E----------------------------------------------------------------------------------|

e----------------------------------------------------------------------------------|
B--5----7-5---7(b)-5---------------------------------------------------------------|
G------------------4--6----7-6--7-6-4------4-----6-6---4----4-6-4-6-4--------------|
D--------------------------------------7-----7--4----------------------------------|
A----------------------------------------------------------------------------------|
E----------------------------------------------------------------------------------|

Chords used for solo:

A | F# | D | E

[Chorus]

D
We can swing, all night long
A
Underneath the stars
D
And when, the night's over
E               E D C# B                  A
We'll make out            in our cars
Tap to rate this tab
# A B C D E F G H I J K L M N O P Q R S T U V W X Y Z