Guitaretab - guitar tabs
Song name
# A B C D E F G H I J K L M N O P Q R S T U V W X Y Z

Bleeding Through - Truth tab

The Truth tab by Bleeding Through
Tabbed by Calum Manning
E-Mail rock.star@tiscali.co.uk

Gtr 1.
C#|------------------------------------------------|
G#|------------------------------------------------|
E |------------------------------------------------|
B |-7-5-7-5-7-8--7-5-7-5-3-2--3-3-3-333--2-2-2-222-|
F#|-5-7-8-7-8-10-8-7-8-7-5-3--5-5-5-555--3-3-3-333-|
B |------------------------------------------------| X4

Gtr2. (after gtr 1 has played the first riff twice)
C#|------------------------------------------------|
G#|------------------------------------------------|
E |------------------------------------------------|
B |-0-------------------------8-8-8-888--7-7-7-777-|
F#|-0-------------------------8-8-8-888--7-7-7-777-|
B |-0-------------------------8-8-8-888--7-7-7-777-| X2


After the first riff has finished (Keyboard arranged for guitar)
C#|-----------------------|----------------------------|
G#|-8-8-10-10-11-11-10-10-|----------10-10-11-11-10-10-|
E |-----------------------|X4--10-10-------------------|X3
B |-----------------------|----------------------------|
F#|-----------------------|----------------------------|
B |-----------------------|----------------------------| 
[ Tab from: http://www.guitaretab.com/b/bleeding-through/182379.html ]
Variation of the last section
C#|-------------------------|
G#|-------13-13-11-11-10-10-|
E |-10-10-------------------|
B |-------------------------|
F#|-------------------------|
B |-------------------------|

Rhythm behind keyboard
C#|--------------------------------------------|
G#|--------------------------------------------|
E |--------------------------------------------|
B |-5-5-5---5--5-5-5---5--1-1-1---1--3-3-3---3-|
F#|-5-5-5---5--5-5-5---5--1-1-1---1--3-3-3---3-|
B |-5-5-5---5--5-5-5---5--1-1-1---1--3-3-3---3-| X2


After the keyboard section
C#|---| 
G#|---| after that there are
E |---| pick scrapes and other
B |-0-| weird and wonderful things
F#|-0-| 
B |-0-| 

C#|------------------------------------------------|
G#|------------------------------------------------|
E |------------------------------------------------|
B |-7-7-7-0000--7-7-7-0000--5-5-5-0000--5-5-5-0000-|
F#|-5-5-5-0000--5-5-5-0000--7-7-7-0000--7-7-7-0000-|
B |-------0000--------0000--------0000--------0000-| X4
          ....        ....        ....        ....

C#|---| 
G#|---|
E |---|
B |-0-|
F#|-0-| 
B |-0-|

Play the first riff again 2 times
Followed by the keyboard section 2 times
Thatís all the guitar for this song apart from the background noises

Thanks for looking :)
Related for Truth tab