Song name
# A B C D E F G H I J K L M N O P Q R S T U V W X Y Z

Bleeding Through - Truth tab

-------------------------------------------------------------------------------
			     The Truth - Bleeding Through
-------------------------------------------------------------------------------
Tabbed by: DaftRocker
Email: daftrocker@hotmail.com

Tuning: Drop B

Guitar 1: x4
c#|------------------------------------------------------------------------|
G#|------------------------------------------------------------------------|
E |-7--9-10--9-10-12-10--9-10--9-7--7--7-7--7-7\--5--5-5--5-5--------------|
B |-x--x-x---x-x--x--x---x-x---x-x--x--x-x--x-x---x--x-x--x-x--------------|
F#|-5--7-8---7-8--10-8---7-8---7-5--8--8-8--8-8\--7--7-7--7-7--------------|
B |-0--0-0---0-0--0--0---0-0---0-0-----------------------------------------|

After 2nd time, Guitar 2 enters with drums & bass
Guitar 2: x2 
c#|------------------------------------------------------------------------|
G#|------------------------------------------------------------------------|
E |------------------------------------------------------------------------|
B |-0--------------------------------10--10-10--10-10--10--10-10--10-10----|
F#|-0--------------------------------8---8--8---8--8---7---7--7---7--7-----|
B |-0----------------------------------------------------------------------|



Rhythm guitar behind keyboard (Listen to the basskick for timing) 
Guitar: x2
c#|------------------------------------------------------------------------|
G#|------------------------------------------------------------------------|
E |------------------------------------------------------------------------|
B |-5-5-5---5--5-5-5---5--1-1-1---1--3-3-3---3-----------------------------|
F#|-5-5-5---5--5-5-5---5--1-1-1---1--3-3-3---3-----------------------------|
B |-5-5-5---5--5-5-5---5--1-1-1---1--3-3-3---3-----------------------------| 



Guitar: (Held along with pick slides)
c#|------------------------------------------------------------------------|
G#|------------------------------------------------------------------------|
E |------------------------------------------------------------------------|
B |-0----------------------------------------------------------------------|
F#|-0----------------------------------------------------------------------|
B |-0----------------------------------------------------------------------| 



Open B chords are palm muted in this part
Guitar 1: x4
c#|------------------------------------------------------------------------|
G#|------------------------------------------------------------------------|
E |-7--7--7----------7--7--7----------5--5--5----------5--5--5-------------|
B |-x--x--x--0-0-0-0-x--x--x--0-0-0-0-x--x--x--0-0-0-0-x--x--x--0-0-0-0----|
F#|-8--8--8--0-0-0-0-8--8--8--0-0-0-0-7--7--7--0-0-0-0-7--7--7--0-0-0-0----|
B |----------0-0-0-0----------0-0-0-0----------0-0-0-0----------0-0-0-0----| 
             . . . .          . . . .          . . . .          . . . .



Guitar 1: x2
c#|------------------------------------------------------------------------|
G#|------------------------------------------------------------------------|
E |-7--9-10--9-10-12-10--9-10--9-7--7--7-7--7-7\--5--5-5--5-5--------------|
B |-x--x-x---x-x--x--x---x-x---x-x--x--x-x--x-x---x--x-x--x-x--------------|
F#|-5--7-8---7-8--10-8---7-8---7-5--8--8-8--8-8\--7--7-7--7-7--------------|
B |-0--0-0---0-0--0--0---0-0---0-0-----------------------------------------|

Guitar 2: x2 
c#|------------------------------------------------------------------------|
G#|------------------------------------------------------------------------|
E |------------------------------------------------------------------------|
B |-0--------------------------------10--10-10--10-10--10--10-10--10-10----|
F#|-0--------------------------------8---8--8---8--8---7---7--7---7--7-----|
B |-0----------------------------------------------------------------------|



Rhythm guitar behind keyboard
Guitar: x2
c#|------------------------------------------------------------------------|
G#|------------------------------------------------------------------------|
E |------------------------------------------------------------------------|
B |-5-5-5---5--5-5-5---5--1-1-1---1--3-3-3---3-----------------------------|
F#|-5-5-5---5--5-5-5---5--1-1-1---1--3-3-3---3-----------------------------|
B |-5-5-5---5--5-5-5---5--1-1-1---1--3-3-3---3-----------------------------| 


Guitar:
c#|------------------------------------------------------------------------|
G#|------------------------------------------------------------------------|
E |------------------------------------------------------------------------|
B |-0----------------------------------------------------------------------|
F#|-0----------------------------------------------------------------------|
B |-0----------------------------------------------------------------------| 



After this there are just pick slides and feedback over the bass and a tremolo 
effect near the end.



Thank you. Hope this helps. Any questions, please e-mail me.



************************************

| /   slide up
| \   slide down
| h   hammer-on
| p   pull-off
| ~   vibrato
| +   harmonic
| x   Mute note
| b   Bend
| pb  Pre-bend
| br  Bend release
| pbr Pre-bend release
| brb Bend release bend

************************************
Tap to rate this tab
 
# A B C D E F G H I J K L M N O P Q R S T U V W X Y Z