Song name
# A B C D E F G H I J K L M N O P Q R S T U V W X Y Z

Bleeding Through - On Wings Of tab

BLEEDING THROUGH 
ON WINGS OF LEAD

TABBED BY Erik (theonemanorgy)
Drop C tuning

(riff 1)
D  :----------------------------------|
A  :----------------------------------|
F  :----------------------------------|
C  :6---4-4---3-1-1-3-----------------|
G  :7---6-6---4-2-2-4-----------------|
C  :------------------0-0-0-0-0-0-0-0-|
                      ...............
                    (triple palm muted notes)
(riff 2)
D  :-----------------------------|
A  :-----------------------------|
F  :-----------------------------|
C  :6---4-4---3-1-1-3-7-77--4-44-|
G  :7---6-6---4-2-2-4-7-77--4-44-|
C  :------------------7-77--4-44-|

(riff 1)
D  :----------------------------------|
A  :----------------------------------|
F  :----------------------------------|
C  :6---4-4---3-1-1-3-----------------|
G  :7---6-6---4-2-2-4-----------------|
C  :------------------0-0-0-0-0-0-0-0-|
                      ...............
                    
(riff 2)
D  :-----------------------------|
A  :-----------------------------|
F  :-----------------------------|
C  :6---4-4---3-1-1-3-7-77--4-44-|
G  :7---6-6---4-2-2-4-7-77--4-44-|
C  :------------------7-77--4-44-|

(guitar cuts out, verse begins)
"Nothing was supposed to hurt like this. Missing you was only one more kiss..."

Beginning song structure:
Riff 1
riff 2
riff 1
riff 2
Verse
etc.

Last guy who tabbed this had the right note spacing but the wrong starting point.
This sounds much more accurate to me, especially with this tuning.
Tap to rate this tab
# A B C D E F G H I J K L M N O P Q R S T U V W X Y Z