Song name
# A B C D E F G H I J K L M N O P Q R S T U V W X Y Z

Bless The Fall - Rise Up Acoustic tab

Intro
   ,           ,           ,           ,
e--8-----------8-----------8-----------8-------------|
B------10--8-10----10--8-10----10--8-10----10--8-----|
G----9---10------9---10------9---10------9---10--10--|
D----------------------------------------------------|
A----------------------------------------------------|
E----------------------------------------------------|

Verse 1(first 8 measures)
Part A
   ,           ,           ,           ,
e----------8-----------8-----------8-----------8-----|
B--10--10------10--10------10--10------10--10--------|
G----10--10--10--10--10--10--10--10--10--10--10--10--|
D----------------------------------------------------|
A----------------------------------------------------|
E----------------------------------------------------|

Part B
   ,           ,           ,           ,
e----------0-----------0-----------0-----------0-----|
B--10--10------10--10------10--10------10--10--------|
G----10--10--10--10--10--10--10--10--10--10--10--10--|
D----------------------------------------------------|
A----------------------------------------------------|
E----------------------------------------------------|

Order of Verse 1-
Part A [x1]
Part B [x1]
Part A [x2]
Repeat.

Verse 1(second 8 measures)
Chords- Dm A# F G
But play this through the whole thing
   ,     ,     ,     ,     ,     ,     ,     ,
e--8-88888-88888-88888-88888-88888-88888-88888-8888--|
B--6-66666-66666-66666-66666-66666-66666-66666-6666--|
G--7-77777-77777-77777-77777-77777-77777-77777-7777--|
D--0-00000-00000-00000-00000-00000-00000-00000-0000--|
A----------------------------------------------------|
E----------------------------------------------------|


Chorus-
Part A
   ,           ,           ,           ,
e----------8-----------8-----------8-----------8-----|
B--10--10------10--10------10--10------10--10--------|
G----10--10--10--10--10--10--10--10--10--10--10--10--|
D----------------------------------------------------|
A----------------------------------------------------|
E----------------------------------------------------|

Part B
   ,           ,           ,           ,
e----------0-----------0-----------0-----------0-----|
B--10--10------10--10------10--10------10--10--------|
G----10--10--10--10--10--10--10--10--10--10--10--10--|
D----------------------------------------------------|
A----------------------------------------------------|
E----------------------------------------------------|

Order of Chorus-
Part A [x1]
Part B [x1]
Part A [x2]
Repeat.

Interlude(first 8 measures)-
   ,     ,     ,     ,     ,     ,     ,     ,
e--8-88888-88888-88888-88888-88888-88888-88888-8888--|
B--6-66666-66666-66666-66666-66666-66666-66666-6666--|
G--7-77777-77777-77777-77777-77777-77777-77777-7777--|
D--0-00000-00000-00000-00000-00000-00000-00000-0000--|
A----------------------------------------------------|
E----------------------------------------------------|

(last 4)

e--8--------0---8-------0---8-------0---8-------0----|
B------8------------8-----------8-----------8--------|
G----10--10---10--10--10--10--10--10--10--10--10--10-|
D----------------------------------------------------|
A----------------------------------------------------|
E----------------------------------------------------|
[x2]

and the final amazing note is........
e-0--
B-8--
G-10-
D-0--
A----
E----
thats pretty much it
Tap to rate this tab
 
# A B C D E F G H I J K L M N O P Q R S T U V W X Y Z