Guitaretab - guitar tabs
Song name
# A B C D E F G H I J K L M N O P Q R S T U V W X Y Z

Blessed By A Broken Heart - Some Kind Of Wonderful tab

Intro......100% correct :^P
.............[i think]


Drop C


d-------------------------------------------------------------------|
a-------------------------------------------------------------------|
f-------------------------------------------------------------------|
c--00-0-00-0---00-0-00-0---88-8-88-8---77-7-77-7---------7/---------|
g--00-0-00-0---00-0-00-0---88-8-88-8---77-7-77-7--pause--7/---------|
c--00-0-00-0---00-0-00-0---88-8-88-8---77-7-77-7---------7/---------|
     xx      xx          xx      xx         xx      xx         xx      xx

d-------------------------------------------------|
a-------------------------------------------------|
f-------------8-7-5-7-5-------------8-7-5-7-5-----|
c--00-0-00-0------------00-0-00-0-----------------|
g--00-0-00-0------------00-0-00-0-----------------|
c--00-0-00-0------------00-0-00-0-----------------|
      xx      xx                         xx      xx
[ Tab from: http://www.guitaretab.com/b/blessed-by-a-broken-heart/152294.html ]
d-------------------------------------------------|
a-------------------------------------------------|
f-------------7-5-3-5-3------------5-3-2-3-5------|
c--88-8-88-8------------77-7-77-7-----------------|
g--88-8-88-8------------77-7-77-7-----------------|
c--88-8-88-8------------77-7-77-7-----------------|
      xx      xx                         xx      xx

d-------------------------------------------------|
a-------------------------------------------------|
f-------------8-7-5-7-5-------------8-7-5-7-5-----|
c--00-0-00-0------------00-0-00-0-----------------|
g--00-0-00-0------------00-0-00-0-----------------|
c--00-0-00-0------------00-0-00-0-----------------|
      xx      xx                         xx      xx

d-------------------------------------------------|
a-------------------------------------------------|
f-------------7-5-3-5-3------------5-3-2-3-5------|
c--88-8-88-8------------77-7-77-7-----------------|
g--88-8-88-8------------77-7-77-7-----------------|
c--88-8-88-8------------77-7-77-7-----------------|
      xx      xx                         xx      xx


*break his heart I brake your face*



KEY
x = palm mute
/ = slide down


-Cody
Related for Some Kind Of Wonderful tab
Advertisement will be closed in 10 seconds