Guitaretab - guitar tabs
Song name
# A B C D E F G H I J K L M N O P Q R S T U V W X Y Z

Blessed By A Broken Heart - To Be Young tab

Ive figured almost the whole song out but there are parts missing and the tab isnt 100% 
its prety damn close. Send any missing parts/ corrections in a comment, thanks.

Tuning (high to low): DAFCGD or one full step down

Intro (x2)
D|----------------------------------------------|
A|-/8-7-----7-7h8p7-5-3--/7-5----5-5h7p5--------|
F|------7---------------------5----------7-5----|
C|----------------------------------------------|
G|----------------------------------------------|
D|----------------------------------------------|

D|---------------------------------7-5--10-----------------|
A|-----8-7--5--------8-7-5----7/8----------7--7-7h8p7------|
F|-5h7--------7-5--7-------7--------------------------9-7--|
C|---------------------------------------------------------|
G|---------------------------------------------------------|
D|---------------------------------------------------------|

Verse 1
D|------------------------------|-----------------------------|
A|------------------------------|-----------------------------|
F|-7---------------7-----7------|-5---------------5-----5-----|
C|-7---------------7-----7------|-5---------------5-----5-----|
G|-5-5-5-5-5-5-5-5-5-5-5-5-5-5--|-3-3-3-3-3-3-3-3-3-3-3-3-3-3-|
D|------------------------------|-----------------------------|

D|------------------------------|-----------------------------|
A|------------------------------|-----------------------------|
F|------------------------------|-7---------------7-----7-----|
C|-5---------------5-----5------|-7---------------7-----7-----|
G|-5---------------5-----5------|-5-5-5-5-5-5-5-5-5-5-5-5-5-5-|
D|-3-3-3-3-3-3-3-3-3-3-3-3-3-3--|-----------------------------|


D|------7-5--10----------------|
A|-7/8----------7--7-7h8p7-----|
F|-------------------------9-7-| x3
C|-----------------------------|
G|-----------------------------|
D|-----------------------------|

D|------7-5-----10-9-7-/12---/15-14-|
A|-7/8--------7-----------12--------|
F|----------------------------------|
C|----------------------------------|
G|----------------------------------|
D|----------------------------------|

Chorus (x2)
D|----------------------------------------------|
A|-/8-7-----7-7h8p7-5-3--/7-5----5-5h7p5--------|
F|------7---------------------5----------7-5----|
C|----------------------------------------------|
G|----------------------------------------------|
D|----------------------------------------------|

D|---------------------------------7-5--10-----------------|
A|-----8-7--5--------8-7-5----7/8----------7--7-7h8p7------|
F|-5h7--------7-5--7-------7--------------------------9-7--|
C|---------------------------------------------------------|
G|---------------------------------------------------------|
D|---------------------------------------------------------|

Verse 2 (x2)
D|------------------------------|-----------------------------|
A|------------------------------|-----------------------------|
F|-7---------------7-----7------|-5---------------5-----5-----|
C|-7---------------7-----7------|-5---------------5-----5-----|
G|-5-5-5-5-5-5-5-5-5-5-5-5-5-5--|-3-3-3-3-3-3-3-3-3-3-3-3-3-3-|
D|------------------------------|-----------------------------|

D|------------------------------|-----------------------------|
A|------------------------------|-----------------------------|
F|------------------------------|-7---------------7-----7-----|
C|-5---------------5-----5------|-7---------------7-----7-----|
G|-5---------------5-----5------|-5-5-5-5-5-5-5-5-5-5-5-5-5-5-|
D|-3-3-3-3-3-3-3-3-3-3-3-3-3-3--|-----------------------------|

Chorus (x2)
D|----------------------------------------------|
A|-/8-7-----7-7h8p7-5-3--/7-5----5-5h7p5--------|
F|------7---------------------5----------7-5----|
C|----------------------------------------------|
G|----------------------------------------------|
D|----------------------------------------------|

D|---------------------------------7-5--10-----------------|
A|-----8-7--5--------8-7-5----7/8----------7--7-7h8p7------|
F|-5h7--------7-5--7-------7--------------------------9-7--|
C|---------------------------------------------------------|
G|---------------------------------------------------------|
D|---------------------------------------------------------|

Solo
D|-/10--10-10ó10h12p10-|-/15-14-12-------15-14h15p14h15-17-|
A|---------------------|-----------15-13-------------------|
F|---------------------|-----------------------------------|
C|---------------------|-----------------------------------|
G|---------------------|-----------------------------------|
D|---------------------|-----------------------------------|
[ Tab from: http://www.guitaretab.com/b/blessed-by-a-broken-heart/191038.html ]
D|-15h17p15h17p15-|----------------|----------------------------|
A|----------------|-15-13\12-12----|-----8-7--5--------8-7-5----|
F|----------------|-------------14-|-5-7--------7-5--7-------7--|
C|----------------|----------------|----------------------------|
G|----------------|----------------|----------------------------|
D|----------------|----------------|----------------------------|

D|---10------12-------14-12-14(bend full)-14p12----|
A|------8-7-----10------------------------------15-|
F|-7-----------------------------------------------|
C|-------------------------------------------------|
G|-------------------------------------------------|
D|-------------------------------------------------|

D|----10-10----------10------|----10-10---------------|
A|----10-10----------10------|----10-10---------------|
F|----10-10----------10-12*~~|----10-10---------------|
C|-12-------12-10-12---------|-12-------12---12p10----|
G|---------------------------|---------------------10-|
D|---------------------------|------------------------|

Very fast hammer on/offs
D|----------15p14p12-------------------|
A|-12h13h15----------15p13p12----------|
F|----------------------------14p12p11-|
C|-------------------------------------|
G|-------------------------------------|
D|-------------------------------------|
                             >Bend full step<
D|----10-10----------10------|-10--12--14--15--20(bend 2 full steps)|
A|----10-10----------10------|-13--15--17--18-----------------------|
F|----10-10----------10-12*~~|--------------------------------------|
C|-12-------12-10-12---------|--------------------------------------|
G|---------------------------|--------------------------------------|
D|---------------------------|--------------------------------------|

Bridge
Guitar 1
I think there are 3 guitars just for this part(the 2 electics as normal but also one acoustic).

Guitar 1
Hold each chord for one bar
D|---|---|---|---|
A|---|---|---|---|
F|-7-|-5-|---|-7-|
C|-7-|-5-|-5-|-7-|
G|-5-|-3-|-5-|-5-|
D|---|---|-3-|---|

Hold the first 3 chords for 1 whole bar
D|---|---|---|-----------------------------------|
A|---|---|---|-----------------------------------|
F|-7-|-5-|---|-7---------------------------------|
C|-7-|-5-|-5-|-7---------------------------------|
G|-5-|-3-|-5-|-5-5-5-5-5-5-5-5-5-5-5-5-5-5-5-5-5-|
D|---|---|-3-|-----------------------------------|
                 . . . . . . . . . . . . . . . .
                                   PM
Guitar 2
I canít figure this tapping part out, so please send it in a comment and I will add it 
youíve figured it out.
D|--------|
A|--------|
F|--------|
C|--------|
G|--------|
D|--------|

D|-/10-8----8-----------------------|
A|-------10---10-8-8 ---------7-----|
F|-----------------10(Bend)---7-----|
C|--------------------------9---9-7-|
G|----------------------------------|
D|----------------------------------|

Hold the first 3 chords for 1 whole bar
D|---|---|---|-----------------------------------|
A|---|---|---|-----------------------------------|
F|-7-|-5-|---|-7---------------------------------|
C|-7-|-5-|-5-|-7---------------------------------|
G|-5-|-3-|-5-|-5-5-5-5-5-5-5-5-5-5-5-5-5-5-5-5-5-|
D|---|---|-3-|-----------------------------------|
                 . . . . . . . . . . . . . . . .
                                   PM
Guitar 3 (acoustic)
D|-----3-------2-------0-----|
A|-------3-------3-------3---|
F|---2-----2-------2-------2-| x8
C|-0-------------------------|
G|---------------------------|
D|---------------------------|


All guitars
Strum each chord 16 times
D|---|---|---|---|
A|---|---|---|---|
F|-7-|-5-|---|-7-|
C|-7-|-5-|-5-|-7-|
G|-5-|-3-|-5-|-5-|
D|---|---|-3-|---|

Chorus (x2)
D|----------------------------------------------|
A|-/8-7-----7-7h8p7-5-3--/7-5----5-5h7p5--------|
F|------7---------------------5----------7-5----|
C|----------------------------------------------|
G|----------------------------------------------|
D|----------------------------------------------|

D|---------------------------------7-5--10-----------------|
A|-----8-7--5--------8-7-5----7/8----------7--7-7h8p7------|
F|-5h7--------7-5--7-------7--------------------------9-7--|
C|---------------------------------------------------------|
G|---------------------------------------------------------|
D|---------------------------------------------------------|

Outro
D|----------------------------------------------|
A|-/8-7-----7-7h8p7-5-3--/7-5----5-5h7p5--------|
F|------7---------------------5----------7-5----|
C|----------------------------------------------|
G|----------------------------------------------|
D|----------------------------------------------|

D|---------------------------|
A|-----8-7--5--------8-7-5---|
F|-5h7--------7-5--7-------7-|
C|---------------------------|
G|---------------------------|
D|---------------------------|

Then there is the second solo which I canít figure out much of, but again please send it 
a comment and I will add it if you know it.
Related for To Be Young tab