Song name
# A B C D E F G H I J K L M N O P Q R S T U V W X Y Z

Blessed By A Broken Heart - Show Me What You Got tab

-----------------------------------------------------------------------
 SHOW ME WHAT YOU GOT (Intro) - Blessed By A Broken Heart
-----------------------------------------------------------------------
Tabbed by: Mitch B
Email: mborton@live.com.au

Tuning: Drop B

This is the intro solo for Show Me What You Got by Blessed by A Broken Heart. I used a 
vid of Shred Sean playing it himself to figure it out. If you have any corrections or 
they are much appreciated.
Cheers.

e|-------------------------------------------------|
B|-13bu15~---13bu15bd13-p10-----------10-----------|
G|-------------------------12--------10------------|
D|------------------------------10h12----12p10-12~-|
A|-------------------------------------------------|
E|-------------------------------------------------|

e|-10h14p10----------------------------------------|
B|---------13p10h13p10------------15~~-------------|
G|--------------------13p12p10h12------------------|
D|-------------------------------------------------|
A|-------------------------------------------------|
E|-------------------------------------------------|

e|-13h17p13------10h13/17p13-----------------------|
B|---------15---------------15---------------------|
G|-----------14~--------------14-------------------|
D|------------------------------15-----------------|
A|--------------------------------17~~-------------|
E|-------------------------------------------------|
Tap to rate this tab
 
# A B C D E F G H I J K L M N O P Q R S T U V W X Y Z