Song name
# A B C D E F G H I J K L M N O P Q R S T U V W X Y Z

Blessed By A Broken Heart - Omg tab

just the beginning of the song for now, but its a good song so i will tab out the rest.

--------------------------------|
---------------5--3--5----------|
---------------5--3--5----------|
---------------7--5--7----------|
--------------------------------|
--0--0--000-0-------------------|


--------------------------------|
---------------5--3--5----------|
---------------5--3--5----------|
---------------7--5--7----------|
--------------------------------|
--0--0--000-0-------------------|

ahh.
Tap to rate this tab
# A B C D E F G H I J K L M N O P Q R S T U V W X Y Z