Song name
# A B C D E F G H I J K L M N O P Q R S T U V W X Y Z

Blessed With Embers - Reminds Me Of Vampires tab

----------------------------------------------------------------------------
	       Reminds Me Of Vampires - Blessed With Embers
----------------------------------------------------------------------------Tabbed by: Donnie San Diego
Email: www.myspace.com/imsexydonnie

(www.isrrecords.com)

Tuning: CGCFAD

(GUITAR PART A)
D|-------------------------------------------------------------------------|
A|-------------------------------------------------------------------------|
F|-------------------------------------------------------------------------|
C|-------------------------------------------------------------------------|
G|---5-8-7--10-8-7-8-13-12-10-12-8-10-7-8----------------------------------|
C|-00-0-0-0---0-0-0-0--0--0--0--0-0--0-0-----------------------------------|
   __ _ _ _   _ _ _ _  _  _  _  _ _  _ _ (PALM MUTE)

D|-------------------------------------------------------------------------|
A|-------------------------------------------------------------------------|
F|-------------------------------------------------------------------------|
C|-------------------------------------------------------------------------|
G|---5-8-7--10-8-7-8--8888888877777777-------------------------------------|
C|-00-0-0-0---0-0-0-0------------------------------------------------------|

(GUITAR PART B)
D|-------------------------------------------------------------------------|
A|-------------------------------------------------------------------------|
F|-------------------------------------------------------------------------|
C|-0-----------------------------------------------------------------------|
G|-0--(HEAVY PALM MUTES - ALL RHYTHM)--------------------------------------|
C|-0-----------------------------------------------------------------------|

(GUITAR PART C)
D|-------------------------------------------------------------------------|
A|-------------------------------------------------------------------------|
F|-------------------------------------------------------------------------|
C|---0---------------------------------------------------------------------|
G|---0--8-5h7-(3x)--10-8-7-8-(2ND TIME AROUND)--10-13-12-8-----------------|
C|-0-0-0-0---------0--0-0-0--------------------0--0--0--0------------------|
   _   _ _         _  _ _ _                    _  _  _  _ (PALM MUTE)

(GUITAR PART D)
D|-------------------------------------------------------------------------|
A|-------------------------------------------------------------------------|
F|-----------------------------------------------------8-------------------|
C|-----------------------------------------------------X-------------------|
G|----------------------------0------------------------6-------------------|
C|-0-(PALM MUTE FAST RHYTHM) (THEN)--0--(4TH TIME AROUND PLAY)-------------|
   _

(GUITAR PART E)
D|-------------------------------------------------------------------------|
A|-------------------------------------------------------------------------|
F|----------------------------------8-8-8-8-7-7-7--------------------------|
C|----------------------------------X-X-X-X-X-X-X--------------------------|
G|----------------------------------6-6-6-6-5-5-5--------------------------|
C|-0-(PALM MUTE FAST RHYTHM) (THEN)----------------------------------------|
   _

(GUITAR PART F)
D|--3--(LET RING) 3--(LET RING)----3---3 (LET RING) (2X)------------------|
A|--7-------------7--------------7---7------------------------------------|
F|------------------------------------------------------------------------|
C|------------------------------------------------------------------------|
G|------------------------------------------------------------------------|
C|------------------------------------------------------------------------|

(GUITAR PART G)

D|-----------------------------------------------------------------3-3-3---|
A|---------------------------------------------(LATER ON ADD THIS)-7-7-7---|
F|-------------------------------------------------------------------------|
C|-0-----------------------------------------------------------------------|
G|-0--(MORE HEAVY PALM MUTED RHYTHM)---------------------------------------|
C|-0-----------------------------------------------------------------------|
   _

(GUITAR PART H)
D|-------------------------------------------------------------------------|
A|-------------------------------------------------------------------------|
F|-------------------------------------------------------------------------|
C|-------------------------------------------------------------------------|
G|-55558888777710101010888877778888131313131212121210101010-(CONT..)-------|
C|-------------------------------------------------------------------------|

D|-------------------------------------------------------------------------|
A|-------------------------------------------------------------------------|
F|-------------------------------------------------------------------------|
C|-------------------------------------------------------------------------|
G|-1212121288881010101077778888--------------------------------------------|
C|-------------------------------------------------------------------------|

(GUITAR PART I)

D|-------------------------------------------------------------------------|
A|-------------------------------------------------------------------------|
F|-------------------------------------------------------------------------|
C|-0-----------8------------0-----------10-----------10-8-7-8--------------|
G|-0-----------8------------0-----------10---(THEN)--10-8-7-8--------------|
C|-0-----------8------------0-----------10-----------10-8-7-8--------------|

(GUITAR PART J)

D|-----------------------333----(12X THEN PLAY)----131313-----(4X)---------|
A|-----------------------777------------------------9-9-9------------------|
F|-------------------------------------------------------------------------|
C|-0-----------------------------------------------------------------------|
G|-0-(FAST PALM MUTES)-----------------------------------------------------|
C|-0-----------------------------------------------------------------------|

(GUITAR PART K)

D|--3---3---3--------------------------------------------------------------|
A|--7---7---7--------------------------------------------------------------|
F|-------------------------------------------------------------------------|
C|--------------0----------------------------------------------------------|
G|--------------0---(LET RING)---------------------------------------------|
C|--------------0----------------------------------------------------------|
   
| /  slide up
| \  slide down
| h  hammer-on
| p  pull-off
| ~  vibrato
| +  harmonic
| x  Mute note
============================================================================
Tap to rate this tab
# A B C D E F G H I J K L M N O P Q R S T U V W X Y Z