Song name
# A B C D E F G H I J K L M N O P Q R S T U V W X Y Z

Blessid Union Of Souls - I Believe chords

Highlighted       Show chord diagrams
-----------------------------------------------------------------------------
                             I Believe - Blessid Union Of Souls
-----------------------------------------------------------------------------
Tabbed by: Zalopan
Email: not important

Tuning: Standard

It's always the same: G#mol, F#, E, H

e|----4-----------2-----------0-----------2----------------------------------|
B|----4-----------2-----------0-----------4----------------------------------|
G|----4-----------3-----------1-----------4----------------------------------|
D|----6-----------4-----------2-----------4----------------------------------|
A|----6-----------4-----------2-----------2----------------------------------|
E|----4-----------2-----------0----------------------------------------------|


     G#      F#                E                H
Walk blindly to the light and reach out for his hand 
  G#          F#                   E      H
Don't ask any questions and don't try to understand 
 G#     F#                  E            H
Open up your mind and then open up your heart 
 G#                   F#                 E        H
And you will see that you and me aren't very far apart 
         G#    F#      E          H
'Cause I believe that love is the answer 
   G#     F#    E               H
I believe that love will find the way 

Tap to rate this tab
# A B C D E F G H I J K L M N O P Q R S T U V W X Y Z