Song name
# A B C D E F G H I J K L M N O P Q R S T U V W X Y Z

Blessthefall - Wait For Tomorrow tab

band: Blessthefall
song: Wait For Tomorrow
CD: His Last Walk
tuning: Drop D


the other tab for this was pretty good he just forgot some of rythms part so im going to 
to fill them in i hope u like it!! :D


INTRO: (played with reverb)

Both guitars
e|--------------------------------------------------------|
B|--------------------------------------------------------|
G|-------13---------11---------9----------11----------13--|
D|---11----------9----------7----------9----------11------|
A|9-----------7----------5----------7----------9----------|
D|--------------------------------------------------------|

(then still with reverb)
e|-----------------------------------|
B|-----------------------------------|
G|--13--13/14--13--11-13/16--14--13--|
D|-----------------------------------|
A|-----------------------------------|
D|-----------------------------------|

(then both guitars play this once clean then twice with distortion)
e|---------------------------------------------------------------|
B|---------------------------------------------------------------|
G|------9----------11----------13--13/14--13--11-13/16--14--13---|  (x3)
D|---7----------9------------------------------------------------|
A|5----------7---------------------------------------------------|
D|---------------------------------------------------------------|


VERSE:

Guitar 1: (x5)
e|-----------------------------------|
B|-----------------------------------|
G|---------13----14----13---11---13--|
D|----11-----------------------------|
A|-99----9----99----99----9----9-----|
D|-----------------------------------|

e|------------------------------------------|
B|------------------------------------------|
G|--------------------------11----11--------|
D|----7------------7------9--------------9--|
A|-55----5----5/7-----77--------7-----7-----|
D|------------------------------------------|

Guitar 2: (x5)
e|---------------------------------------------|
B|---------------------------------------------|
G|---------------------------------------------|
D|-444444-4-444444-4-222222-2-444444-4-44444-0-|
A|-444444-4-444444-4-222222-2-444444-4-44444-0-|
D|-444444-4-444444-4-222222-2-444444-4-44444-0-|


(then play...)
both guitars:  (x2)
e|-----------------------------------------------------------|
B|-----------------------------------------------------------|
G|-----------------------------------------------------------|
D|4444--------------------------0000-------------------------|
A|4444------------------11-12---0000------------------11-12--|
D|4444--121212101010999---------0000--121212101010999--------|

e|-----------------------------|---------------|
B|-----------------------------|---------------|
G|-----------------------------|---------------|
D|4444-------------------------|-000000-222222-|
A|4444------------------11-12--|-000000-222222-|
D|4444--121212101010999--------|-000000-222222-|


VERSE: (x4)

Guitar 1: (x4)
e|-----------------------------------|
B|-----------------------------------|
G|---------13----14----13---11---13--|
D|----11-----------------------------|
A|-99----9----99----99----9----9-----|
D|-----------------------------------|

e|------------------------------------------|
B|------------------------------------------|
G|--------------------------11----11--------|
D|----7------------7------9--------------9--|
A|-55----5----5/7-----77--------7-----7-----|
D|------------------------------------------|

Guitar 2: (x4)
e|---------------------------------------------|
B|---------------------------------------------|
G|---------------------------------------------|
D|-444444-4-444444-4-222222-2-444444-4-44444-0-|
A|-444444-4-444444-4-222222-2-444444-4-44444-0-|
D|-444444-4-444444-4-222222-2-444444-4-44444-0-|


(then play...)
both guitars:  (x2)
e|-----------------------------------------------------------|
B|-----------------------------------------------------------|
G|-----------------------------------------------------------|
D|4444--------------------------0000-------------------------|
A|4444------------------11-12---0000------------------11-12--|
D|4444--121212101010999---------0000--121212101010999--------|

e|-----------------------------|---------------|
B|-----------------------------|---------------|
G|-----------------------------|---------------|
D|4444-------------------------|-000000-222222-|
A|4444------------------11-12--|-000000-222222-|
D|4444--121212101010999--------|-000000-222222-|


both guitars:
e|------------------|
B|------------------|
G|------------------|
D|-0000-22-2222222--|
A|-0000-22-2222222--|
D|-0000-22-2222222--|
        ..

Guitar 1:
e|------------------|
B|------------------|
G|---9-13-14-13-9---| (do that till they start doing the verse till end)
D|-11------------11-|
A|9-----------------|
D|------------------|

Guitar 2:
e|---------------------------------|
B|---------------------------------|
G|---------------------------------|
D|-444444444-222222222-000000000---| (play till verse at the end)
A|-444444444-222222222-000000000---|
D|-444444444-222222222-000000000---|
   ......... ......... .........


VERSE (play till end):

Guitar 1:
e|-----------------------------------|
B|-----------------------------------|
G|---------13----14----13---11---13--|
D|----11-----------------------------|
A|-99----9----99----99----9----9-----|
D|-----------------------------------|

e|------------------------------------------|
B|------------------------------------------|
G|--------------------------11----11--------|
D|----7------------7------9--------------9--|
A|-55----5----5/7-----77--------7-----7-----|
D|------------------------------------------|

Guitar 2:
e|---------------------------------------------|
B|---------------------------------------------|
G|---------------------------------------------|
D|-444444-4-444444-4-222222-2-444444-4-44444-0-|
A|-444444-4-444444-4-222222-2-444444-4-44444-0-|
D|-444444-4-444444-4-222222-2-444444-4-44444-0-|


ok that was it... i hope u enjoyed :D listen to the song for strumming patterns i tryd 
them in there as best as i could but idk it doesnt look good lol! follow my instructions 
u'll be fine! :]
any ?'s or comments or changes tell me ok?

| / slide     |
| . palm mute |
Tap to rate this tab
 
# A B C D E F G H I J K L M N O P Q R S T U V W X Y Z