Song name
# A B C D E F G H I J K L M N O P Q R S T U V W X Y Z

Blessthefall - Well Sleep When Were Dead tab

Blessthefall - We'll Sleep When We're Dead

Tabbed by: EDMguitar7
email: nclax17@optonline.net

This is my first tab so plzzz correct any problems you see in this tab. I learned the 
from watching eric play it in a video on youtube. Im about 95% sure.

Tuning: Drop D


put your left hand in this formation and tap the following....
simple enough

Intro/Bridge pt1:

e|------5-------------|
B|------3-------------|
G|--------------------|
D|--------------------|
A|--------------------|
D|--------------------|

e|---13p5-------------13p5-------------13p5-10p5-12p5-----|
B|---------10p3-10p3--------10p3-10p3---------------------|
G|--------------------------------------------------------|
D|--------------------------------------------------------|
A|--------------------------------------------------------|
D|--------------------------------------------------------|

e|---10p5-----------10p5-8p5-10p5------|
B|---------8p3-8p3---------------------|
G|-------------------------------------|
D|-------------------------------------|
A|-------------------------------------|
D|-------------------------------------|

Chorus: x2

e|----------------------------------------------|
B|----------------------------------------------|
G|----------------------------------------------|
D|--88888888-55555555------0-0-0-0-00-----------|
A|--88888888-55555555------0-0-0-0-00-x2--------|
D|--88888888-55555555------0-0-0-0-00-----------|


e|----------------------------------------------------------------|
B|----------------------------------------------------------------|
G|---------------12121212/1414/15---121212------101010101010/9----|
D|--8888888888---x-x-x-x--x-x--x-0--x-x-x---00--x-x-x-x-x-x--x----|
A|--8888888888---10101010/1212-130--101010--00--8-8-8-8-8-8/-7----|
D|--8888888888-------------------0----------00--------------------|

Verse:

(not sure about how many notes here.. jst listen and figure it out)

                                                (on second time first verse)
e|---------------------------------------------|-------------------------|
B|---------------------------------------------|-------------------------|
G|--14------7--------------/1212/-101010-------|---10--------------------|
D|--x-x20---x-x14(i think)--x-x---x-x-x--------|---x-x8 in sets of 2's---|
A|--12------5--------------/1010/-8-8-8--------|---8---------------------|
D|---------------------------------------------|-------------------------|


 (lil bends here..not too sure about this part and throw in some pinch harmonics if you want)
e|-----------|-----------------------------|
B|-----------|-----------------------------|
G|-----------|-----------------------------|
D|-----------|-----3-----------------------|
A|---000-000-|-----------000--4p3----------|
D|---000-000-|--4^--3^---000-----3---------|
PM   ... ...             ...


Repeat verse
then..

after you do the verse it goes into this
(figure out strumming)

e|----------------------------------|
B|----------------------------------|
G|---14/17\15---10-9----------------|
D|----x--x--x---x--x----0~----------|
A|---12/15\13---8--7----0~----------|
D|----------------------0~----------|


intro/bridge

outro:

(again figure out strumming)
e|---------------------------------------------|
B|---------------------------------------------|
G|-----10-9----15--17--12---10-9--14--9-7------|
D|-----x--x----x---x---x----x--x--x---x-x------|
A|-----8--7----13--15--10---8--7--12--7-5------|
D|---------------------------------------------|

Enjoy :) please rate and post any comments or corrections thank you.
Tap to rate this tab
 
# A B C D E F G H I J K L M N O P Q R S T U V W X Y Z