Song name
# A B C D E F G H I J K L M N O P Q R S T U V W X Y Z

Blessthefall - I Wouldnt Quit If Everybody Quit tab

-------------------------------------------------------------------------------
	    I wouldn't quit if everyone quit - Blessthefall
-------------------------------------------------------------------------------
Tabbed by:screamo_core
Email:pansy_screamo@hotmail.com

Tuning:Drop D



  Guitar 1
Intro:(o:00-0:27)
e|-------------------------------------------|       |--|
B|-------------------------------------------|       |--|
G|-------------------------------------------|       |--|
D|--2\10-0-0---------------2\10--000-00------|X6     |0~|
A|--2\10-0-0--8p0-7p0-5p0--2\10--000-00------|i think|0~|
D|--2\10-0-0---------------2\10--000-00------|       |0~|


e|------------------------------------------------------------------------|}
B|------------------------------------------------------------------------|}
G|------------------101010101010-1212121212-14141414141414-151515-141414--|}
D|--3333333-8888888-X-X-X-X-X-X--X-X-X-X-X--X-X-X-X-X-X-X--X-X-X--X-X-X---|}
A|--3333333-8888888-8-8-8-8-8-8--1010101010-12121212121212-131313-121212--|}
D|--3333333-8888888-------------------------------------------------------|}(0:27-0:48)
                                                                           }
e|-------------------------------------------------------------|           }
B|-------------------------------------------------------------|           }
G|---101010101010\121212\14141414/1010101010--171717171717-----|           }
D|---X-X-X-X-X-X--X-X-X--X-X-X-X--X-X-X-X-X---X-X-X-X-X-X------|           }
A|---8-8-8-8-8-8-\101010-12121212-8-8-8-8-8---151515151515-----|           }
D|-------------------------------------------------------------|           }

(0:49-0:53)
e|-------------------------------------------------------|
B|-8p0-7p0-5p0-8p0-7p0-5p0-19p0-17p0-16--7p07p07p07p0----|
G|-------------------------------------------------------|
D|-------------------------------------------------------|
A|-------------------------------------------------------|
D|-------------------------------------------------------|

(0:54-1:02)
e|-------------------------------|
B|-------------------------------|
G|-------------------------------|
D|---12/0~---12/0~--00---12/0----|
A|---12/0~---12/0~--00---12/0----|
D|---12/0~---12/0~--00---12/0----|

(1:03-1:20)
e|----------------0------0------------------------|
B|----------------6------6------------------------|
G|----------------9------9------------------------|repeat
D|--00-----00---------------00--00-00-------------|
A|--00-000-00-00-----00-----00--00-00-0--875875---|
D|--00-000-00-00-----00-----00--00-00-0-----------|
       ...    ..     ..               .

(1:21-1:37)
e|-----------------------------------|---------|
B|-----------------------------------|---------|         
G|-----------------------------------|---------|
D|--5p07p08p07p05p03p05p07p08p0------|---------|
A|-----------------------------------|8p07p05p0|
D|-----------------------------------|---------|

(1:38-1:46)
e|----------------------------------------------|
B|----------------------------------------------|
G|------------------------10101010101010--14~---|
D|--3333333333-8888888888--X-X-X-X-X-X-X--X-----|
A|--3333333333-8888888888--8-8-8-8-8-8-8--12~---|
D|--3333333333-8888888888-----------------------|

(1:47-2:04)
e|---------------------------------------------------------|
B|---------------------------------------------------------|
G|---101010101010-1212121212-14141414141414-151515-141414--|
D|---X-X-X-X-X-X--X-X-X-X-X--X-X-X-X-X-X-X--X-X-X--X-X-X---|
A|---8-8-8-8-8-8--1010101010-12121212121212-131313-121212--|
D|---------------------------------------------------------|

e|-------------------------------------------------------------|
B|-------------------------------------------------------------|
G|---101010101010\121212\14141414/1010101010--171717171717-----|
D|---X-X-X-X-X-X--X-X-X--X-X-X-X--X-X-X-X-X---X-X-X-X-X-X------|
A|---8-8-8-8-8-8-\101010-12121212-8-8-8-8-8---151515151515-----| 
D|-------------------------------------------------------------| 

(2:04-2:08)
e|-------------------------------------------------------|
B|-8p0-7p0-5p0-8p0-7p0-5p0-19p0-17p0-16--7p07p07p07p0----|
G|-------------------------------------------------------|
D|-------------------------------------------------------|
A|-------------------------------------------------------|
D|-------------------------------------------------------|

(2:09-2:36)
e|------------------------------------------|----------------|
B|------------------------------------------|----------------|
G|--------------------a lot of times--------|---fast---------|
D|---3----33----------0---3----33-0------0--|----857585------|
A|---3000033--0-00000-0---3000033-000000-0--|--55------------|
D|---3000033--0-00000-0---3000033-000000-0--|----------------|
      ....    . .....      ....    .....                 

(2:37-till end)
e|--------------------------------------|
B|--------------------------------------|
G|--------------------------------------|
D|--00-0000-0-00-0000-0-00-0000-0-------|
A|--00-0000-0-00-0000-0-00-0000-0-------|
D|--00-0000-0-00-0000-0-00-0000-0-------|
    .. .... . .. .... . .. .... .

_______________________________________________________________________________________

Guitar 2

starts at 0:09
Intro:(o:09-0:27)
e|-------------------------------------------|       |--|
B|-------------------------------------------|       |--|
G|-------------------------------------------|       |--|
D|--2\10-0-0---------------2\10--000-00------|X4     |0~|
A|--2\10-0-0--8p0-7p0-5p0--2\10--000-00------|       |0~|
D|--2\10-0-0---------------2\10--000-00------|       |0~|


 they don't play this 1st part but i just added it because it sounds good and 
don't know that part
(0:27-0:48)
e|----------------------------------------------------------------------|
B|----------------------------------------------------------------------|
G|---101010101010777777-------------------------------------------------|
D|---X-X-X-X-X-X-XXXXXX---3333333-55-88888-33333-55-88888-33333-88888---|
A|---8-8-8-8-8-8-555555---3333333-55-88888-33333-55-88888-33333-88888---|
D|------------------------3333333-55-88888-33333-55-88888-33333-88888---|

(0:49-0:53)
e|-----------------------------------------|
B|-----------------------------------------|
G|-----------------------------------------|
D|---33333333-55555555555-8888888888-------|
A|---33333333-55555555555-8888888888-------|
D|---33333333-55555555555-8888888888-------|

(0:54-1:02)
e|------------------------------|
B|----66666-666666-6666666------|
G|----99999-999999-9999999------|there's definetely
D|------------------------------|a 3rd guitar that keeps
A|------------------------------|playing this through the 
D|------------------------------|breakdown

(1:03-1:37)
e|----------------0------0------------------------|
B|----------------6------6------------------------|
G|----------------9------9------------------------|
D|--00-----00---------------00--00-00-------------|
A|--00-000-00-00-----00-----00--00-00-0--875875---|
D|--00-000-00-00-----00-----00--00-00-0-----------|
       ...    ..     ..               .

(1:38-1:46)
e|------------------------------------------------|
B|------------------------------------------------|
G|---101010101010777777---------------------------|
D|---X-X-X-X-X-X-XXXXXX---33333333555555----------|
A|---8-8-8-8-8-8-555555---33333333555555\12~------|
D|------------------------33333333555555----------|

(1:47-2:04)
e|-----------------------------------------------------------|
B|-----------------------------------------------------------|
G|-----------------------------------------------------------|
D|---33333333-55-8888888-3333333-55-88888888--333333-888888--|
A|---33333333-55-8888888-3333333-55-88888888--333333-888888--|
D|---33333333-55-8888888-3333333-55-88888888--333333-888888--|

(2:04-2:08)
e|-----------------------------------------| |  |
B|-----------------------------------------| |  |
G|-----------------------------------------| |  |
D|---33333333-55555555555-8888888888-------| |0~|
A|---33333333-55555555555-8888888888-------| |0~|
D|---33333333-55555555555-8888888888-------| |0~|

Note that enters at 2:18
(2:18-2:36)
e|------------------------------------------|------|
B|------------------------------------------|------|
G|--------------------a lot of times--------|------|
D|---3----33----------0---3----33-------0---|------|
A|---3000033--0-00000-0---3000033-00000-0---|558676|
D|---3000033--0-00000-0---3000033-00000-0---|------|
      ....    . .....      ....    .....                 

outro
e|-----------------------------------|
B|-----------------------------------|
G|-----------------------------------|
D|--00-0000-0-00-0000-0-00-0000-0----|
A|--00-0000-0-00-0000-0-00-0000-0----|
D|--00-0000-0-00-0000-0-00-0000-0----|
    .. .... . .. .... . .. .... .





| /  slide up
| \  slide down
| h  hammer-on
| p  pull-off
| ~  vibrato
| +  harmonic
| x  Mute note
===============================================================================
Tap to rate this tab
# A B C D E F G H I J K L M N O P Q R S T U V W X Y Z