Song name
# A B C D E F G H I J K L M N O P Q R S T U V W X Y Z

Blessthefall - Whats Left Of Me tab

Blessthefall - What's left of me

please rate, it is my first tab, i know it isn't perfect, but I play it so, and 
it's okay for me, I hope this tab will help you :)
(mimmim13@hotmail.fr for correction or other)

e|---------------------------------------------------|
B|---------------------------------------------------|
G|---------------------------------------------------|
D|-----------nothing to do there---------------------|
A|---------------------------------------------------|
D|---------------------------------------------------|

both guitar
e|--------------------------------------------------------------|
B|--------------------------------------------------------------|
G|--------------------------------------------------------------|
D|--------------------------------------------------------------|X2
A|00000-000-0----0-0-00000-000-0-888888555555-------------------|
D|00000-000-0----0-0-00000-000-0-888888555555-------------------|

Guitar one
e|--------------------------------------------------------------------|     
B|--------------------------------------------------------------------|
G|--------------------------------------------------------------------|
D|7-0000-7-00-10-0000-8-00-7-0000////10-0000-8-00-70000-10-0000-8-00-5|X2
A|--------------------------------------------------------------------|
D|--------------------------------------------------------------------| 
there's something I don't know (the end of this), maybe i'll post it later

OR                (Same part but different guitar)

Guitar two
e|--------------------------------------------------------------|
B|--------------------------------------------------------------|
G|--------------------------------------------------------------|
D|--------------------------------------------------------------|X2
A|00000-000-0--0-0-00000-00000-00000-000-0-888888555555---------|
D|00000-000-0--0-0-00000-00000-00000-000-0-888888555555---------|

Guitar one
e|--------------------|------------------------------------------|
B|--------------------|------------------------------------------|
G|--------------------|-12-14-14-14-14-14-12-14-14-14-14-14------|
D|--------------------|--x--x--x--x--x--x--x--x--x--x--x--x------|
A|00000000000000000000|-10-12-12-12-12-12-10-12-12-12-12-12------|
D|00000000000000000000|------------------------------------------|
        Part 1     then part 2 X2, and part 1 again / part 2 X2 again

Guitar one
e|--------------------------------------------------------------|
B|--------------------------------------------------------------|
G|--------------------------------------------------------------|
D|--------------------------------------------------------------|
A|00000-00------------------------------------------------------|
D|00000-00------------------------------------------------------|

Then both guitar
e|--------------------------------------------------------------|
B|--------------------------------------------------------------|
G|--------------------------------------------------------------|
D|--------------------------------------------------------------|X2
A|00000-000-0----0-0-00000-000-0-888888555555-------------------|
D|00000-000-0----0-0-00000-000-0-888888555555-------------------|

Guitar one
e|---------------------------------------------------------------------|     
B|---------------------------------------------------------------------|
G|---------------------------------------------------------------------|
D|7-0000-7-00-10-0000-8-00-7-0000////10-0000-8-00-7-0000-10-0000-8-00-5|X2
A|---------------------------------------------------------------------|
D|---------------------------------------------------------------------| 
there's something I don't know (the end of this), maybe i'll post it later

OR                (Same part but different guitar)

Guitar two
e|--------------------------------------------------------------|
B|--------------------------------------------------------------|
G|--------------------------------------------------------------|
D|--------------------------------------------------------------|X2
A|00000-000-0--0-0-00000-00000-00000-000-0-888888555555---------|
D|00000-000-0--0-0-00000-00000-00000-000-0-888888555555---------|

Guitar one
e|--------------------------------------------------------------|
B|--------------------------------------------------------------|
G|--------------------------------------------------------------|
D|777777777777777777b7b7b7b7b7b7b777777777777777777b7b7b7b7b7b7b|X2
A|--------------------------------------------------------------|
D|--------------------------------------------------------------|

Guitar two do the same thing, but with 
e|--------------------------------------------------------------|
B|--------------------------------------------------------------|
G|777777777777777777b7b7b7b7b7b7b-------------------------------|
D|x------------------x------------------------------------------|X4
A|555555555555555555b5b5b5b5b5b5b-------------------------------|
D|--------------------------------------------------------------|

Both guitar, or one guitar continu the last part 
e|17----17----17----17----17~~-12----12----15----15----15------|
B|--15----15----15----15---------15----15----15----15----15----|
G|----14----14----14----14---------14----14----14----14----14~~|
D|-------------------------------------------------------------|X6(?)
A|-------------------------------------------------------------|
D|-------------------------------------------------------------|
(Not 100% correct, the end it false i think, but it sound like the song)

Then guitar one (both ? i haven't other guitar) (Part A)
e|--------------------------------------------------------------------------|
B|--------------------------------------------------------------------------|
G|12-14-14-14-14-14-12-14-14-14-14-14-17-17-17-22-22-22-22-22-22-21-21-21-21|
D|-x--x--x--x--x--x--x--x--x--x--x--x--x-x---x--x--x--x--x--x--x--x--x--x--x|
A|10-12-12-12-12-12-10-12-12-12-12-12-15-15-15-20-20-20-20-20-20-19-19-19-19|
D|--------------------------------------------------------------------------|

e|-------------------------------|
B|-------------------------------|
G|21-21--------------------------|
D|-x--x--------------------------|
A|19-19--------------------------|
D|-------------------------------|
 
(Part B)
e|--------------------------------------------------------------------------|
B|--------------------------------------------------------------------------|
G|12-14-14-14-14-14-12-14-14-14-14-14-17-17-17-19-19-19-19-19-19-19-19-19-19|
D|-x--x--x--x--x--x--x--x--x--x--x--x--x-x---x--x--x--x--x--x--x--x--x--x--x|
A|10-12-12-12-12-12-10-12-12-12-12-12-15-15-15-17-17-17-17-17-17-17-17-17-17|
D|--------------------------------------------------------------------------|

e|-------------------------------|
B|-------------------------------|How to play? Part A, Part B, Part A, Part B 
G|19-19--------------------------|
D|-x--x--------------------------|
A|17-17--------------------------|
D|-------------------------------|

end (Both guitar)
e|--------------------------------------------------------------|
B|--------------------------------------------------------------|
G|--------------------------------------------------------------|
D|--------------------------------------------------------------|X2
A|00000-000-0-00000-000-0-00000-000-0000000000000---------------|
D|00000-000-0-00000-000-0-00000-000-0000000000000---------------|
 
e|--------------------------------------------------------------|
B|--------------------------------------------------------------|
G|--------------------------------------------------------------|
D|0-------------------------------------------------------------|X2
A|0-------------------------------------------------------------|
D|0-------------------------------------------------------------|
Tap to rate this tab
# A B C D E F G H I J K L M N O P Q R S T U V W X Y Z