Song name
# A B C D E F G H I J K L M N O P Q R S T U V W X Y Z

Blessthefall - Witness tab

i dont know if its as good as the covers on youtube but it sounds ok to me.


Tuning:drop c# - c#-g#-c#-f#-a#-d#

If you want to play it how they play it live,all you need to do is change the tuning to 
d. It's just because all their old songs are in drop d, so they play all their songs in 
d.

Guitar 1
e|----0-0-0-0-0-0-0-0-0-0-0-0-0-0-0-0-0-0-0-0-0-0-0-0-0-0-0-0-0-0-0-0|
B|----6-6-6-6-6-6-6-6-6-6-6-6-6-6-6-6-6-6-6-6-6-6-6-6-6-6-6-6-6-6-6-6|
G|-------------------------------------------------------------------|
D|-------------------------------------------------------------------|
A|-------------------------------------------------------------------|
E|-------------------------------------------------------------------|

Guitar 2
e|-------------------------------------------------------------------|
B|-------------------------------------------------------------------|
G|-------------------------------------------------------------------|
D|-0-0-0--0-0---------------0-0-0--0-0-------------------------------|
A|-0-0-0--0-0----silence----0-0-0--0-0-------------------------------|
E|-0-0-0--0-0---------------0-0-0--0-0-------------------------------|


repeat as many times needed

Guitar 1 + 2
e|-------------------------------------------------------------------|
B|-------------------------------------------------------------------|
G|-------------------------------------------------------------------|
D|-00000000---000--000--000--000-------------------------------------|
A|-00000000---000--000--000--000-------------------------------------|
E|-00000000---000--000--000--000-------------------------------------|
            play one  8th and then 2 16th notes for the 000 parts.
                                                        000
                                                        000


Guitar 1
e|----------------|---------------------------------------------------|
B|-10--------8-10-|------8-10-------8-10---8-8-8h10p8-----------------|
G|-----10-10------|10-10------10-10--------------------10p9-----------|
D|----------------|---------------------------------------------------|
A|----------------|---------------------------------------------------|
E|----------------|---------------------------------------------------|

e|----------|---------------------------------------------------------|
B|----------|---------------------------------------------------------|
G|-10-7-7-9-|-10-7-7-9-9-9h10p9---------------------------------------|
D|----------|-----------------12p10-----------------------------------|
A|----------|---------------------------------------------------------|
E|----------|---------------------------------------------------------|


Guitar 2
e|-------------------------------------------------------------------|
B|-------------------------------------------------------------------|
G|-------------------------------------------------------------------|
D|-8-8-8-8-8-8-8888---5-5-5-5-5-5555---------------------------------|
A|-8-8-8-8-8-8-8888---5-5-5-5-5-5555---------------------------------|
E|-8-8-8-8-8-8-8888---5-5-5-5-5-5555---------------------------------|


e|-------------------------------------------------------------------|
B|-------------------------------------------------------------------|
G|-------------------------------------------------------------------|
D|-0-0-0-0-0-0-0000-----0-0-0-0-0-0-0000-----------------------------|
A|-0-0-0-0-0-0-0000-----0-0-0-0-0-0-0000-----------------------------|
E|-0-0-0-0-0-0-0000-----0-0-0-0-0-0-0000-----------------------------|

Well that's how I play it. I hope this helps. I can play the whole song, but I'm quite 
with other stuff, so just let me know when you want the full tab and I'll try to upload 
as quickly as possible.
Tap to rate this tab
# A B C D E F G H I J K L M N O P Q R S T U V W X Y Z