Song name
# A B C D E F G H I J K L M N O P Q R S T U V W X Y Z

Blessthefall - Witness tab

Tuning:drop c# - c#-g#-c#-f#-a#-d#

Here is the whole song. Please rate and tell me about corrections.

Intro

Guitar 1
e|----0-0-0-0-0-0-0-0-0-0-0-0-0-0-0-0-0-0-0-0-0-0-0-0-0-0-0-0-0-0-0-0|
B|----6-6-6-6-6-6-6-6-6-6-6-6-6-6-6-6-6-6-6-6-6-6-6-6-6-6-6-6-6-6-6-6|
G|-------------------------------------------------------------------|
D|-------------------------------------------------------------------|
A|-------------------------------------------------------------------|
E|-------------------------------------------------------------------|

Guitar 2
e|-------------------------------------------------------------------|
B|-------------------------------------------------------------------|
G|-------------------------------------------------------------------|
D|-0-0-0--0-0---------------0-0-0--0-0-------------------------------|
A|-0-0-0--0-0----silence----0-0-0--0-0-------------------------------|
E|-0-0-0--0-0---------------0-0-0--0-0-------------------------------|


Repeat as many times needed

Guitar 1 + 2 (x3 I think)
e|-------------------------------------------------------------------|
B|-------------------------------------------------------------------|
G|-------------------------------------------------------------------|
D|-00000000---000--000--000--000-------------------------------------|
A|-00000000---000--000--000--000-------------------------------------|
E|-00000000---000--000--000--000-------------------------------------|
            Play one  8th and then 2 16th notes for the 000 parts.
                                                        000
                                                        000

Chorus (x2)

Guitar 1
e|----------------|---------------------------------------------------|
B|-10--------8-10-|------8-10-------8-10---8-8-8h10p8-----------------|
G|-----10-10------|10-10------10-10--------------------10p9-----------|
D|----------------|---------------------------------------------------|
A|----------------|---------------------------------------------------|
E|----------------|---------------------------------------------------|

e|----------|---------------------------------------------------------|
B|----------|---------------------------------------------------------|
G|-10-7-7-9-|-10-7-7-9-9-9h10p9---------------------------------------|
D|----------|-----------------12p10-----------------------------------|
A|----------|---------------------------------------------------------|
E|----------|---------------------------------------------------------|



Guitar 2
e|-------------------------------------------------------------------|
B|-------------------------------------------------------------------|
G|-------------------------------------------------------------------|
D|-8-8-8-8-8-8-8888---5-5-5-5-5-5555---------------------------------|
A|-8-8-8-8-8-8-8888---5-5-5-5-5-5555---------------------------------|
E|-8-8-8-8-8-8-8888---5-5-5-5-5-5555---------------------------------|


e|-------------------------------------------------------------------|
B|-------------------------------------------------------------------|
G|-------------------------------------------------------------------|
D|-0-0-0-0-0-0-0000-----0-0-0-0-0-0-0000-----------------------------|
A|-0-0-0-0-0-0-0000-----0-0-0-0-0-0-0000-----------------------------|
E|-0-0-0-0-0-0-0000-----0-0-0-0-0-0-0000-----------------------------|



Post-Chorus

Guitar 1 + 2

e|-------------------------------------------------------------------|
B|-------------------------------------------------------------------|
G|-------------------------------------------------------------------|
D|-0-00-0-00---5-3-2h3-0~-0~-0~-000000-------------------------------|
A|-0-00-0-00-----------0~-0~-0~-000000-------------------------------|
E|-0-00-0-00-----------0~-0~-0~-000000-------------------------------|

Verse
Guitar 1 

e|-------------------------------------------------------------------|
B|-------------------------------------------------------------------|
G|-------------------------------------------------------------------|
D|-0-0~-7-3h7-7-3h7-0000~---7-3h7--7--3h7----------------------------|(x3)
A|-0-0~-------------0000~--------------------------------------------|
E|-0-0~-------------0000~--------------------------------------------|


Do this the fourth time
e|-------------------------------------------------------------------|
B|-------------------------------------------------------------------|
G|-------------------------------------------------------------------|
D|-0-0~-3h7p3h7p3h7p3h7p3h7p3h7-0000~---3h7p3h7p3h7p3h7p3h7p3h7------|
A|-0-0~-------------------------0000~--------------------------------|
E|-0-0~-------------------------0000~--------------------------------|


Guitar 2 (Only comes in on the fourth time)

e|-------------------------------------------------------------------|
B|-----3h6p3h6p3h6p3h6p3h6p3h6------2h5p2h5p2h5p2h5p2h5p2h5----------|
G|-------------------------------------------------------------------|
D|-0-0~-----------------------0000~----------------------------------|
A|-0-0~-----------------------0000~----------------------------------|
E|-0-0~-----------------------0000~----------------------------------|



Chorus (x4 I think)

Guitar 1
e|----------------|---------------------------------------------------|
B|-10--------8-10-|------8-10-------8-10---8-8-8h10p8-----------------|
G|-----10-10------|10-10------10-10--------------------10p9-----------|
D|----------------|---------------------------------------------------|
A|----------------|---------------------------------------------------|
E|----------------|---------------------------------------------------|

e|----------|---------------------------------------------------------|
B|----------|---------------------------------------------------------|
G|-10-7-7-9-|-10-7-7-9-9-9h10p9---------------------------------------|
D|----------|-----------------12p10-----------------------------------|
A|----------|---------------------------------------------------------|
E|----------|---------------------------------------------------------|


Guitar 2
e|-------------------------------------------------------------------|
B|-------------------------------------------------------------------|
G|-------------------------------------------------------------------|
D|-8-8-8-8-8-8-8888---5-5-5-5-5-5555---------------------------------|
A|-8-8-8-8-8-8-8888---5-5-5-5-5-5555---------------------------------|
E|-8-8-8-8-8-8-8888---5-5-5-5-5-5555---------------------------------|


e|-------------------------------------------------------------------|
B|-------------------------------------------------------------------|
G|-------------------------------------------------------------------|
D|-0-0-0-0-0-0-0000-----0-0-0-0-0-0-0000-----------------------------|
A|-0-0-0-0-0-0-0000-----0-0-0-0-0-0-0000-----------------------------|
E|-0-0-0-0-0-0-0000-----0-0-0-0-0-0-0000-----------------------------|


Slow Part

Guitar 1
e|-------------------------------------------------------------------|
B|-------------------------------------------------------------------|
G|-------------------------------------------------------------------|
D|-0-0-00--0-0-00--3*bu----------------------------------------------|
A|-0-0-00--0-0-00----------------------------------------------------|
E|-0-0-00--0-0-00----------------------------------------------------|


The 3* is a pinched harmonic with a bend and so is the 7 for guitar 2.

Guitar 2

e|-------------------------------------------------------------------|
B|-------------------------------------------------------------------|
G|-------------------------------------------------------------------|
D|-0-0-00--0-0-00--7*bu----------------------------------------------|
A|-0-0-00--0-0-00----------------------------------------------------|
E|-0-0-00--0-0-00----------------------------------------------------|



Slow Part 2 (Repeat as many times as needed)
Guitar 1 + 2
e|-------------------------------------------------------------------|
B|-------------------------------------------------------------------|
G|-------------------------------------------------------------------|
D|-0-0-00--0-0-0000---0-0-00--3-33-5-55------------------------------|
A|-0-0-00--0-0-0000---0-0-00--3-33-5-55------------------------------|
E|-0-0-00--0-0-0000---0-0-00--3-33-5-55------------------------------|



Chorus (x4)

Guitar 1
e|----------------|---------------------------------------------------|
B|-10--------8-10-|------8-10-------8-10---8-8-8h10p8-----------------|
G|-----10-10------|10-10------10-10--------------------10p9-----------|
D|----------------|---------------------------------------------------|
A|----------------|---------------------------------------------------|
E|----------------|---------------------------------------------------|

e|----------|---------------------------------------------------------|
B|----------|---------------------------------------------------------|
G|-10-7-7-9-|-10-7-7-9-9-9h10p9---------------------------------------|
D|----------|-----------------12p10-10/12~~~~~~~~~~~~~~~--------------|
A|----------|---------------------------------------------------------|
E|----------|---------------------------------------------------------|


Guitar 2
e|-------------------------------------------------------------------|
B|-------------------------------------------------------------------|
G|-------------------------------------------------------------------|
D|-8-8-8-8-8-8-8888---5-5-5-5-5-5555---------------------------------|
A|-8-8-8-8-8-8-8888---5-5-5-5-5-5555---------------------------------|
E|-8-8-8-8-8-8-8888---5-5-5-5-5-5555---------------------------------|


e|-------------------------------------------------------------------|
B|-------------------------------------------------------------------|
G|-------------------------------------------------------------------|
D|-0-0-0-0-0-0-0000-----0-0-0-0-0-0-0000---3p2-----------------------|
A|-0-0-0-0-0-0-0000-----0-0-0-0-0-0-0000-------3/5~~~~~~~~~~~~~~~~~~~|
E|-0-0-0-0-0-0-0000-----0-0-0-0-0-0-0000-----------------------------|


That's how I play it. Hope this tab helps.
Tap to rate this tab
 
# A B C D E F G H I J K L M N O P Q R S T U V W X Y Z