Song name
# A B C D E F G H I J K L M N O P Q R S T U V W X Y Z

Blessthefall - Guys Like You Make Us Look Bad tab

Tuning: Drop D
p = pull off
h = hammer on
/ = slide up to the note
\ = slide down to the note

okay this song/tab were done in a hurry. so no promises

|-----------------------------------------|
|-----------------------------------------|
|--------10p0-10p0-----10p0-10p0----------|
|-----------------------------------------|
|--0-0-0-----------0-0-----------0--0--0--|
|--0-0-0-----------0-0-----------0--0--0--|
3x

end
|-------------------------------------|
|-------------------------------------|
|-------10-0-10-0---------------------|
|-------------------------------------|
|-0-0-0-----------0-0---0-0-0--0-0-0--|
|-0-0-0-----------0-0---0-0-0--0-0-0--|

next part has one guitar doing a lead line over constantly
lead guitar:
|--------------------------|
|-------7-------7----------|
|-7/10-----9/10----9--10---|
|--------------------------|
|--------------------------|
|--------------------------|

2nd guitar:
|-----------------------------------|
|-----------------------------------|
|-----------------------------------|
|-----------------------------------|
|--0-0--0-0--0-----0-0--0-0--0----3-|
|--0-0--0-0--0-----0-0--0-0--0----3-|

|-----------------------------------|
|-----------------------------------|
|-3---------------------------------|
|-3---------------5-----------------|
|-1---------------5-----------------|
|-----------------5-----------------|
  ^ for a measure ^ for a measure

The 2nd guitar just plays a nice open D chord. Lead guitar:
|-----------------------------------|
|-----------------------------------|
|-----2-----------------------------|
|-2h3---0-3p0-0-5p0-3p0-2p0-0-3p0---|
|-----------------------------------|
|-----------------------------------|

Last time:
|-----------------------------------|
|-----------------------------------|
|-----2-----------------------------|
|-2h3---0-3p0-0-5p0-3p0-2-7*--------|
|-----------------------------------|
|-----------------------------------|
* = pinch harmonic. SQUEELEY.

There's a lead part over this but you can figure it out
it's just the other lead parts palm muted
|-----------------------------------|
|-----------------------------------|
|-----------------------------------|
|-3*---5-5-5-5-5-5-5-5-8-8-8-8------|
|-3*---5-5-5-5-5-5-5-5-8-8-8-8------|
|-3*---5-5-5-5-5-5-5-5-8-8-8-8------|
*=for a measure

DUH DUH dun dun dun dun DUH DUH da da da da da da
DUH DUH dun dun dun dun DUH DUH
|-----------------------------------|
|-----------------------------------|
|-----------------------------------|
|-----------------------------------|
|--0-0--0-0-000--0-0--0-0-0-0-0-0-0-|
|--0-0--0-0-000--0-0--0-0-0-0-0-0-0-|

|---------------------|
|---------------------|
|---------------------|
|---------------------|
|--0-0--0-0-000--0-0--|
|--0-0--0-0-000--0-0--|
DRUM HIT

first mellow riff
|-----------------------|
|---10----10----10------|
|---10----10----10------|
|-8-----------8---------|
|------10----------10---|
|-----------------------|

lead line (don't know chords in back but they're not important)
|-----------------------------12-13p12-------|
|-----------------------10/13----------13\10-|
|-9h10p9-------10h12p10----------------------|
|--------10/12-------------------------------|
|--------------------------------------------|
|--------------------------------------------|

|-----------------------|
|-----------------------|
|-9h10p9-------10h12p10-|
|--------10/12----------|
|-----------------------|
|-----------------------|

other lead thinggg
|------------------|
|---10----------10-|
|------10---9---10-|
|-8-------8---8----|
|------------------|
|------------------|

|-------------------|
|---10-----------10-|
|------10----9---10-|
|-------------------|
|-10------10---10---|
|-------------------|

pause
MOSH

|-----------------------------------|
|-----------------------------------|
|---------2-------------2-----------|
|-----2h3---0-0-7p0-2h3---0-3p0-----|
|-0-0-------------------------------|
|-0-0-------------------------------|

|-----------------------------|
|-----------------------------|
|-----------------------------|
|-----------------------------|
|--0-0-0--0-0-0---0--0---0-0--|
|--0-0-0--0-0-0---0--0---0-0--|

chord lead thing:
|--12---|
|--10---|
|--10---|
|-------|
|-------|
|-------|
play that a buncha times

|--12-12-12---12-12------------------|
|--10-10-10---10-10----10--10--10--10|
|--10-10-10---10-10--10--10--10--10--|
|------------------------------------|
|------------------------------------|
|------------------------------------|

Tap to rate this tab
 
# A B C D E F G H I J K L M N O P Q R S T U V W X Y Z