Song name
# A B C D E F G H I J K L M N O P Q R S T U V W X Y Z

Blessthefall - Higinia tab

Drop D



|-----------------------------------------------------|
|-----------------------------------------------------|
|-----------------------------10-12-5/7/9-------------|
|-8-7----------10-0---------0--x--x-x/x/x-------------|
|-----10-8-7-8------7-0-7-8-0--8-10-3/5/7-------------|
|---------------------------0-------------------------|
listen to the song and figure out the rythem of it
|-----------------------------------------------------|
|-----------------------------------------------------|
|-----------------------------------------------------|
|-8-7----------10-0-----------------------------------|
|-----10-8-7-8------7-0-7-8---------------------------|
|-----------------------------------------------------|

|-----------------------------------------------------|
|-----------------------------------------------------|
|-10p7-9p7-12p0-10p0-9p0-9h10p9----10p7-9p7-12p0-10p0-|
|-----------------------------------------------------|
|-----------------------------------------------------|
|-----------------------------------------------------|

|-----------------------------------------------------|
|-----------------------------------------------------|
|-9h10-7h9----10p7-9p7-12p0-10p0-9p0-9h10p9-----------|
|-----------------------------------------------------|
|-----------------------------------------------------|
|-----------------------------------------------------|

|-----------------------------------------------------|
|-----------------------------------------------------|
|-10p7-9p7-12p0-10p0-9h10-5/7---9/10-5/7/9------------|
|-----------------------------0-x/-x-x/x/x------------|
|-----------------------------0-7/-8-3/5/7------------|
|-----------------------------0-----------------------|

|-----------------------------------------------------|
|-----------------------------------------------------|
|-----------------------------------------------------|
|-8-7----------10-0-----------------------------------|
|-----10-8-7-8------7-0-7-8---------------------------|
|-----------------------------------------------------|

|-----------------------------------------------------|
|-----------------------------------------------------|
|-10p7-9p7-12p0-10p0-9p0-9h10p9----10p7-9p7-12p0-10p0-|
|-----------------------------------------------------|
|-----------------------------------------------------|
|-----------------------------------------------------|

|-----------------------------------------------------|
|-----------------------------------------------------|
|-9h10-7h9----10p7-9p7-12p0-10p0-9p0-9h10p9-----------|
|-----------------------------------------------------|
|-----------------------------------------------------|
|-----------------------------------------------------|

|-----------------------------------------------------|
|-----------------------------------------------------|
|-10p7-9p7-12p0-10p0-9h10-5/7-------------------------|
|-----------------------------------------------------|
|-----------------------------5-7-8-5-7-0-5-7-8-5-7-0-|
|-----------------------------5-5-5-8-8-0-5-5-5-8-8-0-|
figure out the rythem of it :)
|-----------------------------------------------------|
|-----------------------------------------------------|
|--10-12-5/7/9----------------------------------------|
|-0-x--x-x/x/x----------------------------------------|
|-0-8-10-3/5/7----------------------------------------|
|-0---------------------------------------------------|

|-----------------------------------------------------|
|-----------------------------------------------------|
|-----------------------------------------------------|
|-8-7----------10-0-----------------------------------|
|-----10-8-7-8------7-0-7-8---------------------------|
|-----------------------------------------------------|

|-----------------------------------------------------|
|-----------------------------------------------------|
|-10p7-9p7-12p0-10p0-9p0-9h10p9----10p7-9p7-12p0-10p0-|
|-----------------------------------------------------|
|-----------------------------------------------------|
|-----------------------------------------------------|

|-----------------------------------------------------|
|-----------------------------------------------------|
|-9h10-7h9----10p7-9p7-12p0-10p0-9p0-9h10p9-----------|
|-----------------------------------------------------|
|-----------------------------------------------------|
|-----------------------------------------------------|

|-----------------------------------------------------|
|-----------------------------------------------------|
|-10p7-9p7-12p0-10p0-9h10-5/7--9/10-5/7/9-------------|
|----------------------------0-x/-x-x/x/x-------------|
|----------------------------0-7/-8-3/5/7-------------|
|----------------------------0------------------------|

|-----------------------------------------------------|
|-----------------------------------------------------|
|-----------------------------------------------------|
|-8-7----------10-0-----------------------------------|
|-----10-8-7-8------7-0-7-8---------------------------|
|-----------------------------------------------------|

|-----------------------------------------------------|
|-----------------------------------------------------|
|-10p7-9p7-12p0-10p0-9p0-9h10p9----10p7-9p7-12p0-10p0-|
|-----------------------------------------------------|
|-----------------------------------------------------|
|-----------------------------------------------------|

|-----------------------------------------------------|
|-----------------------------------------------------|
|-9h10-7h9----10p7-9p7-12p0-10p0-9p0-9h10p9-----------|
|-----------------------------------------------------|
|-----------------------------------------------------|
|-----------------------------------------------------|

|-----------------------------------------------------|
|-----------------------------------------------------|
|-10p7-9p7-12p0-10p0-9h10-5/7-------------------------|
|-----------------------------------------------------|
|-----------------------------------------------------|
|-----------------------------------------------------|

|-----------------------------------------------------|
|-----------------------------------------------------|
|-----------------------------------------------------|
|-----------------------------------------------------|
|-----7-7h8----8-8h10-----10-10p8-----8-8p7-----------|
|-0-0-------0-0-------0-0---------0-0-----------------|

|-----------------------------------------------------|
|-----------------------------------------------------|
|-----------------------------------------------------|
|-----------------------------------------------------|
|-----7-7h8----8-8h10-----10-10p8-----12-12h13p12-----|
|-0-0-------0-0-------0-0---------0-0-----------------|

|-----------------------------------------------------|
|-----------------------------------------------------|
|-----------------------------------------------------|
|--------------------------------------------7-9-10---|
|-----7-7h8----8-8h10-----10-10p8-----7-8-10----------|
|-0-0-------0-0-------0-0---------0-0-----------------|

|-----------------------------------------------------|
|-----------------------------------------------------|
|-----------------------------------------------------|
|-----------------------------------------8-7---------|
|---------7-7-7h8-------10-10-10h12-8-8-8-----10-8-7--|
|---0-0-0---------0-0-0-------------8-8-8------------10|

|-----------------------------------------------------|
|-----------------------------------------------------|
|-----------------------------------------------------|
|-----------------------------------------------------|
|---------7-7-7h8-------10-10-10h12-8-8-8-10-8-7------|
|---0-0-0---------0-0-0-------------8-8-8--------10-8-|

|-----------------------------------------------------|
|-----------------------------------------------------|
|-----------------------------------------------------|
|-----------------------------------------8-7---------|
|---------7-7-7h8-------10-10-10h12-8-8-8-----10-8-7--|
|---0-0-0---------0-0-0-------------8-8-8------------10|


|-----------------------------------------------------|
|-----------------------------------------------------|
|-----------------------------------------------------|
|-----------------------------------------------------|
|---------7-7-7h8-------10-10-10h12-8-8-8-10-8-7------|
|---0-0-0---------0-0-0-------------8-8-8--------10-8-|


|-----------------------------------------------------|
|-----------------------------------------------------|
|-----------------------------------------------------|
|-----------------------------------------8-7---------|
|---------7-7-7h8-------10-10-10h12-8-8-8-----10-8-7--|
|---0-0-0---------0-0-0-------------8-8-8------------10|

|-----------------------------------------------------|
|-----------------------------------------------------|
|-----------------------------------------------------|
|-----------------------------------------------------|
|---------7-7-7h8-------10-10-10h12-8-8-8-10-8-7------|
|---0-0-0---------0-0-0-------------8-8-8--------10-8-|




there you go no problem now make me proud
Tap to rate this tab
# A B C D E F G H I J K L M N O P Q R S T U V W X Y Z