Song name
# A B C D E F G H I J K L M N O P Q R S T U V W X Y Z

Blessthefall - Times Like These tab

-------------------------------------------------------------------------------
			     Times like These - Blessthefall
-------------------------------------------------------------------------------
Tabbed by: Mantovani

I tabbed this for the lead guitar. 
many of the rhythm parts is not here. Most of them are D chord, figure it out by yourself.

Tuning: Dropped D

Verse

e|----------------------------------------------------------------------|
B|----------------------------------------------------------------------|
G|---10p9------10p9-------10p9------------------------------------------|
D|--------12p0-------12p0-------12p0---10--10--10h12--------------------| x8
A|----------------------------------------------------------------------|
D|----------------------------------------------------------------------|

Chorus 

first part x 2
e|--------------------------------------------------------------------------|
B|--------------------------------------------------------------------------|
G|---------------5-5/7-7-7-7/9-9-9-9-----------------7-7/9-9-9-9/10101010---|
D|--0-0000-0-000-x-x-x-x-x-x-x-x-x-x---0-0000-0-000--x-x-x-x-x-x-x-x-x-x----|
A|--0-0000-0-000-3-3/5-5-5-5/7-7-7-7---0-0000-0-000--5-5/7-7-7-7/8-8-8-8----|
D|--0-0000-0-000-----------------------0-0000-0-000-------------------------|

e|--------------------------------------------------------------------------|
B|--------------------------------------------------------------------------|
G|--------------------------------------------------------------------------|
D|--8-8888-8-8888-8-8888-8-8888-8-8888-8-8888----8p7-7p5--------------------|
A|--8-8888-8-8888-8-8888-8-8888-8-8888-8-8888-------------8-7p5h7h8---------|
D|--8-8888-8-8888-8-8888-8-8888-8-8888-8-8888-------------------------------|

second part x 2
e|--------------------------------------------------------------------------|
B|--------------------------------------------------------------------------|
G|---------------5-5/7-7-7-7/9-9-9-9-----------------7-7/9-9-9-9/10101010---|
D|--0-0000-0-----x-x-x-x-x-x-x-x-x-x---0-0000-0------x-x-x-x-x-x-x-x-x-x----|
A|--0-0000-0-----3-3/5-5-5-5/7-7-7-7---0-0000-0------5-5/7-7-7-7/8-8-8-8----|
D|--0-0000-0---------------------------0-0000-0-----------------------------|

e|--------------------------------------------------------------------------|
B|--------------------------------------------------------------------------|
G|--------------------------------------------------------------------------|
D|--8-8888-8-8888-8-8888-8-8888-8-8888-8-8888----8p7-7p5--------------------|
A|--8-8888-8-8888-8-8888-8-8888-8-8888-8-8888-------------8-7p5h7h8---------|
D|--8-8888-8-8888-8-8888-8-8888-8-8888-8-8888-------------------------------|

Verse
e|--------------------------------------------------------------------------|
B|--------------------------------------------------------------------------|
G|---10p9-------------------------------------------------------------------|
D|----------12p0---10--10--10h12--------------------------------------------|
A|--------------------------------------------------------------------------|
E|--------------------------------------------------------------------------|

e|----------------------------------------------------------------------|
B|----------------------------------------------------------------------|
G|---10p9------10p9-------10p9------------------------------------------|
D|--------12p0-------12p0-------12p0---10--10--10h12--------------------| x7
A|----------------------------------------------------------------------|
D|----------------------------------------------------------------------|

Bridge
e|--------------------------------------------------------------------------|
B|------------------------------------------------------8b-6--6h8~-8b~------|
G|---------------10-9-----------------10~--9~-------------------------------|
D|----10h12~----------10~----------------------12~--------------------------|
A|--------------------------------------------------------------------------|
D|--------------------------------------------------------------------------|

this part x3
e|--------------------------------------------------------------------------|
B|--------------------------------------------------------------------------|
G|--------------------------------------------------------------------------|
D|----0-0000-0---------------0-0000-0------------0-0000-0-------------------|
A|----0-0000-0---------------0-0000-0------------0-0000-0-------------------|
D|----0-0000-0---------------0-0000-0------------0-0000-0-------------------|

e|--------------------------------------------------------------------------|
B|-------------------------11-8-10--8------8--8--8------8-------------------|
G|3-2-----------------------------10--9-10--10-10---9-10--10-9-10-9h10p-5h7~|
D|----3----3--3-5-3---------------------------------------------------------|
A|-------5--5-------5-3-(5)-------------------------------------------------|
D|--------------------------------------------------------------------------|

Outro

e|-----------------------------------------|
B|-----------------------------------------|
G|-----------------------------------------| 
D|-0---0--8-7-----------0--8-7-------------| x8
A|---0--------8-10-7--0--------8-10-7------|
E|-----------------------------------------|



************************************

| /   slide up
| \   slide down
| h   hammer-on
| p   pull-off
| ~   vibrato
| +   harmonic
| x   Mute note
| b   Bend
| pb  Pre-bend
| br  Bend release
| pbr Pre-bend release
| brb Bend release bend

************************************
Tap to rate this tab
 
# A B C D E F G H I J K L M N O P Q R S T U V W X Y Z