Song name
# A B C D E F G H I J K L M N O P Q R S T U V W X Y Z

Blessthefall - Hey Baby Heres That Song You Wanted tab

Hey baby here’s that song you wanted tab
Tuning- half a step up from drop D | p = pull-off | h = hammer- on
~ = hold note | * = mute | b = bend | X_ = number of times part is played
/ = slide
Line-1
1|--------------------------------------------------------|
2|--------------------------------------------------------|
3|--9-10-0-5-7-0-10-14-10-12-10-0-9-0-9-10----------------|
4|--------------------------------------------------------|
5|--------------------------------------------------------|
6|--------------------------------------------------------|
Line-2
1|--------------------------------------------------------------------------|
2|--------------------------------------------------------------------------|
3|--9-10-0-5-7-0-10-14-10-12-10-0-14p-10h-14p-10h-12p-10h-12p-10h-----------|
4|--------------------------------------------------------------------------|
5|--------------------------------------------------------------------------|
6|--------------------------------------------------------------------------|

First 2 lines X2

Line-3
1|--------------------------------------------------------------|
2|--------------------------------------------------------------|
3|--9-10-0-10-12-0-12-14-0-14-0-0-12-0-12-14-0------------------|
4|--------------------------------------------------------------|
5|--------------------------------------------------------------|
6|--------------------------------------------------------------|
Line-4
1|-------------------------------------------------------------|
2|-------------------------------------------------------------|
3|--9-10-0-10-12-0-12-14-0-14-0-0-15-14-12-14------------------|
4|-------------------------------------------------------------|
5|-------------------------------------------------------------|
6|-------------------------------------------------------------|
Line-5
1|--------------------------------------------------------|
2|--------------------------------------------------------|
3|--9-10-0-5-7-0-10-14-10-12-10-0-9-0-9-10----------------|
4|--------------------------------------------------------|
5|--------------------------------------------------------|
6|--------------------------------------------------------|
Line-6
1|--------------------------------------------------------------------------|
2|--------------------------------------------------------------------------|
3|--9-10-0-5-7-0-10-14-10-12-10-0-14p-10h-14p-10h-12p-10h-12p-10h-----------|
4|--------------------------------------------------------------------------|
5|--------------------------------------------------------------------------|
6|--------------------------------------------------------------------------|
Line-7
1|---------------------------------------------------13------|
2|------------------15---------------------15----------------|
3|-------------------------------------------------------12b-|     X7
4|--*12-*12-*12-*12----*12-*12-*12-*12-*12----*12-*12--------|
5|-----------------------------------------------------------|
6|-----------------------------------------------------------|
Line-8
1|-----------------------------------------------------------|
2|-----------------------------------------------------------|
3|--10-10-10-10-10-10-10-10-10-10-10-10-10/------------------|
4|-----------------------------------------------------------|
5|--8--8--8--8--8--8--8--8--8--8--8--8--8/-------------------|
6|-----------------------------------------------------------|

Lines 1-6 again

Line 7 X4

Line-9
1|----------------------------------------------------------------|
2|------------------15---------------------15---------------------|
3|----------------------------------------------------------------|
4|--*12-*12-*12-*12----*12-*12-*12-*12-*12----*12-*12-*12-*12-*12-|     X3
5|----------------------------------------------------------------|
6|----------------------------------------------------------------|

Line 8 again

Lines 1-6 again

Line-10
1|------------------------------------------------------------------|
2|------------------------------------------------------------------|
3|------------------------------------------------------------------|
4|--8-8-8-8-8-8-8-8-8-8-8-8-8-8-8-8-5-5-5-5-5-5-5-5-5-5-5-5-5-5-5-5-|
5|--8-8-8-8-8-8-8-8-8-8-8-8-8-8-8-8-5-5-5-5-5-5-5-5-5-5-5-5-5-5-5-5-|
6|--8-8-8-8-8-8-8-8-8-8-8-8-8-8-8-8-5-5-5-5-5-5-5-5-5-5-5-5-5-5-5-5-|
Line-11
1|---------------------------------------------|
2|---------------------------------------------|
3|---------------------------------------------|
4|--------------------------0~~~*0-0~~~*0-0~~~-|
5|--------------------------0~~~*0-0~~~*0-0~~~-|
6|--*0-*0-*0-*0-*0-*0-*0-*0-0~~~*0-0~~~*0-0~~~-|
Line-12
1|----------------------------------------------------------------|
2|----------------------------------------------------------------|
3|----------------------------------------------------------------|
4|--------------------------5~~~*5-5~~~*5-7p-3h-7p-3h-------------|    X2
5|--*3-*3-*3-*3-*3-*3-*3-*3-3~~~*3-3~~~*3-------------7p-3h-7p-3h-|
6|----------------------------------------------------------------|
Line-13
1|------------------------------------------------------------|
2|------------------------------------------------------------|
3|------------------------------------------------------------|
4|--8-8-8-8-8-8-8-8-8-8-8-8-8-8-8-8-5~~~5~~~5~~~~~0~~~~~~~~~~-|
5|--8-8-8-8-8-8-8-8-8-8-8-8-8-8-8-8-5~~~5~~~5~~~~~0~~~~~~~~~~-|
6|--8-8-8-8-8-8-8-8-8-8-8-8-8-8-8-8-5~~~5~~~5~~~~~0~~~~~~~~~~-|
Line-14
1|--------------------------|
2|--------------------------|
3|--------------------------|
4|--8~~~~~~~~~~0----------/-|
5|--8~~~~~~~~~~0----------/-|
6|--8~~~~~~~~~~0----------/-|

Lines 1-6 again

Lines 1-5 again

1|---------------------------------------------|
2|---------------------------------------------|
3|--9-10-0-5-7-0-10-14-10~~9~~7~~9~~7~~~~~~~~~-|
4|---------------------------------------------|
5|---------------------------------------------|
6|---------------------------------------------|
Tap to rate this tab
 
# A B C D E F G H I J K L M N O P Q R S T U V W X Y Z