Song name
# A B C D E F G H I J K L M N O P Q R S T U V W X Y Z

Blessthefall - Guys Like You Make Us Look Bad tab

-----------------------------------------------------------------------------
		    song: GUYS LIKE YOU MAKE US LOOK BAD 
                          artist: blessthefall
                          album: His Last Walk
-----------------------------------------------------------------------------
Tabbed by:robotdevil999
this should be 100% correct! send corrections to xxemozombie100xx@yahoo.com if you 
have any! this is my first tab so bear with me.

Tuning:DADGBE

Intro: (Riff A)
E|------------------------------------|
B|------------------------------------|
G|--1012h1012h------1012h1012h--------|
D|--------------0-0-------------0-0-0-| *three times*
A|--------------0-0-------------0-0-0-|
D|--------------0-0-------------0-0-0-|

(Riff B)
E|---------------------|
B|---------------------|
G|---------------------|
D|-0-0--0-0---0-0--0-0-|
A|-0-0--0-0---0-0--0-0-|
D|-0-0--0-0---0-0--0-0-|

(Riff A) *three times*]
E|------------------------------------|
B|------------------------------------|
G|--1012h1012h------1012h1012h--------|
D|--------------0-0-------------0-0-0-| *three times*
A|--------------0-0-------------0-0-0-|
D|--------------0-0-------------0-0-0-|

(Riff B)
E|---------------------|
B|---------------------|
G|---------------------|
D|-0-0--0-0---0-0--0-0-|
A|-0-0--0-0---0-0--0-0-|
D|-0-0--0-0---0-0--0-0-|

(Riff C)
E|------------------------------------|
B|------10-8h-------10-8h-------------|
G|-7-9h-------9-10h-------9-10h-10-7h-|
D|------------------------------------| *twelve times*
A|------------------------------------|
D|------------------------------------|

(Riff D)
E|-------------------------------------------------------|
B|-------------------------------------------------------|
G|-------------------------------------------------------|
D|-0-3-7-0-3-0-0-5-0-3-0-3-0-3-0-3-7-0-3-0-0-5-0-3-0-(3)-|
A|-------------------------------------------------------|
D|-------------------------------------------------------|

(Riff E)PM all notes
E|---------------|
B|---------------|
G|---------------|
D|-333--555--888-|
A|-333--555--888-|
D|-333--555--888-|

(Riff F)
E|-----------------------|
B|-----------------------|
G|-----------------------|
D|-00-7-00--00-7-0-0-0--0|
A|-00----0--00-----0-0--0|
D|-00----0--00-----0-0--0|

(Riff E) don't palm mute last three notes.
E|---------------|
B|---------------|
G|---------------|
D|-333--555--888-|
A|-333--555--888-|
D|-333--555--888-|


(Riff G)
E|-------------------------|
B|-------------------------|
G|-------------------------|
D|-0-0-------0-0-------0-0-|
A|-0-0-------0-0-------0-0-|
D|-0-0-0-0-0-0-0-0-0-0-0-0-|

(Riff H)
E|---------------------|
B|---10---10---10---10-|
G|---10---10---10---10-|
D|-8----5----8----5----|
A|-8----5----8----5----|
D|-8----5----8----5----|

(Interlude)
E|---------------------------------13-12--------------------------|
B|-----------------------13---13---------13-10--------------------|
G|9-10-9----------9-10-9----9----9-------------9-10-9----------10-|
D|-------10-12-10-------------------------------------10-12-10----|
A|----------------------------------------------------------------|
D|----------------------------------------------------------------|
*ten times*

(Riff H)
E|---------------------|
B|---10---10---10---10-|
G|---10---10---10---10-|
D|-8----5----8----5----|
A|-8----5----8----5----|
D|-8----5----8----5----|

(Riff I)
E|---------------------------|
B|---------------------------|
G|---------------------------|
D|-3-0-10-0-7-0-10-0-7-0-3-0-|
A|---------------------------|
D|---------------------------|

(Breakdown)
E|-------------------|
B|-------------------|
G|-------------------|
D|-0--000-000--0-0-0-|
A|-0--000-000--0-0-0-|
D|-0--000-000--0-0-0-|

(Outro)
E|---------------|
B|---------------|
G|10-10-10-10-10-|
D|x--x--x--x--x--|
A|8--8--8--8--8--|
D|---------------|



PLAYING ORDER
Riff A
Riff A
Riff A
Riff B
Riff A
Riff A
Riff A
Riff B
Riff C (twelve times)
Riff D
Riff D
Riff D
Riff E
Riff F
Riff E (don't palm mute last three notes)
Riff G
Riff C (twelve times)
Riff H
Interlude (ten times)
Riff H ( eight times)
Breakdown
Outro ( repeat as needed)

*****************************************************************************
that's all there is to it, pretty simple. thanks for using my tab, please give me 
feedback on it, corrections, suggestions, etc.
*****************************************************************************

| /   slide up
| \   slide down
| h   hammer-on
| p   pull-off
| ~   vibrato
| +   harmonic
| x   Mute note
| b   Bend
| pb  Pre-bend
| br  Bend release
| pbr Pre-bend release
| brb Bend release bend

************************************
Tap to rate this tab
 
# A B C D E F G H I J K L M N O P Q R S T U V W X Y Z