Song name
# A B C D E F G H I J K L M N O P Q R S T U V W X Y Z

Blessthefall - Whats Left Of Me tab

Song: Whatís Left of Me
Artist: Blessthefall
Album: Witness

Tuning: Drop D ( D A D G B E )

Intro is just feedback

e|------------------------------------------------|
B|------------------------------------------------|
G|------------------------------------------------|
D|-0----------------------------------------------|
A|-0-whammy-down-progressively-or-do-a-pick-slide-|
D|-0----------------------------------------------|

Play this twice

e|----------------------------------------------------|
B|----------------------------------------------------|
G|----------------------------------------------------|
D|----------------------------------------------------|
A|-00000-000-0----0-0-00000-000-0-88888888-55555555---|
D|-00000-000-0----0-0-00000-000-0-88888888-55555555---|
   ***** *** *    * * ***** *** * ******** ********

Play this 4 times
e|--------------------------------i-recommend----|
B|-----------------------------picking-this-part-|
G|-----------------------------------------------|
D|-/8-0000-7-0000-5-0000-3-0000-2h3h5-7h8h10-----|
A|-----------------------------------------------|
D|-----------------------------------------------|

Iím gonna put this as if it was hammered on so that you can see
the notes better, but all of it is actually picked (yes, he plays it
all on one string, watch live videos if you donít believe me)

e|-----------------------------------------------------------|
B|-----------------------------------------------------------|
G|-----------------------------------------------------------|
D|-5h7-5h7h8-7h8h10-8h10h12---8h10-8h10h12-10h12h14-12h14h15-|
A|-----------------------------------------------------------|
D|-----------------------------------------------------------|

e|--------------------------------------|
B|--------------------------------------|
G|--------------------------------------|
D|-12h14-12h14h15-14h15h17-15h17h19-19\-|
A|--------------------------------------|
D|--------------------------------------|

Itís played like this though

e|-----------------------------------------------|
B|-----------------------------------------------|
G|-----------------------------------------------|
D|--5-0-7-0-5-0-7-0-8-0-7-0-8-0-10-0-8-0-10-0-12-|
A|-----------------------------------------------|
D|-----------------------------------------------|

e|-----------------------------------------------------|
B|-----------------------------------------------------|
G|-----------------------------------------------------|
D|--8-0-10-0-8-0-10-0-12-0-10-0-12-0-14-0-12-0-14-0-15-|
A|-----------------------------------------------------|
D|-----------------------------------------------------|

e|-----------------------------------------------------------|
B|-----------------------------------------------------------|
G|-----------------------------------------------------------|
D|--12-0-14-0-12-0-14-0-15-0-14-0-15-0-17-0-15-0-17-0-19-19\-|
A|-----------------------------------------------------------|
D|-----------------------------------------------------------|

Repeat the chorus twice

e|------------------------repeat-this-part-twice------------|
B|----------------------------------------------------------|
G|----------12-/-14-14-14-14-14-14-12-/-14-14-14-14-14-14---|
D|-0---------x----x--x--x--x--x--x--x----x--x--x--x--x--x---|
A|-0--x32---10-/-12-12-12-12-12-12-10-/-12-12-12-12-12-12---|
D|-0--------------------------------------------------------|

This is played in the background

e|---------------|
B|---------------|
G|---------------|
D|---------------|
A|-0000-00-------|
D|-0000-00-------|
   **** **

Play this twice

e|----------------------------------------------------|
B|----------------------------------------------------|
G|----------------------------------------------------|
D|----------------------------------------------------|
A|-00000-000-0----0-0-00000-000-0-88888888-55555555---|
D|-00000-000-0----0-0-00000-000-0-88888888-55555555---|
   ***** *** *    * * ***** *** * ******** ********

Play this 4 times

e|--------------------------------i-recommend----|
B|-----------------------------picking-this-part-|
G|-----------------------------------------------|
D|-/8-0000-7-0000-5-0000-3-0000-2h3h5-7h8h10-----|
A|-----------------------------------------------|
D|-----------------------------------------------|

e|-----------------------------------------------|
B|-----------------------------------------------|
G|-----------------------------------------------|
D|--5-0-7-0-5-0-7-0-8-0-7-0-8-0-10-0-8-0-10-0-12-|
A|-----------------------------------------------|
D|-----------------------------------------------|

e|-----------------------------------------------------|
B|-----------------------------------------------------|
G|-----------------------------------------------------|
D|--8-0-10-0-8-0-10-0-12-0-10-0-12-0-14-0-12-0-14-0-15-|
A|-----------------------------------------------------|
D|-----------------------------------------------------|

e|-----------------------------------------------------------|
B|-----------------------------------------------------------|
G|-----------------------------------------------------------|
D|--12-0-14-0-12-0-14-0-15-0-14-0-15-0-17-0-15-0-17-0-19-19\-|
A|-----------------------------------------------------------|
D|-----------------------------------------------------------|

e|------|
B|------|
G|--5*--|
D|------|
A|------|
D|------|

Play the chorus twice

e|------------------------repeat-this-part-twice------------|
B|----------------------------------------------------------|
G|----------12-/-14-14-14-14-14-14-12-/-14-14-14-14-14-14---|
D|-0---------x----x--x--x--x--x--x--x----x--x--x--x--x--x---|
A|-0--x32---10-/-12-12-12-12-12-12-10-/-12-12-12-12-12-12---|
D|-0--------------------------------------------------------|

Play this for a while, but only bend the 7ís when you need to 
(listen carefully)

e|--------------------------------|
B|--------------------------------|
G|--------------------------------|
D|--7-7-7-7-7-7^7^7^--------------|
A|--5-5-5-5-5-5-5-5---------------|
D|--------------------------------|

Play this entire thing 3 times

e|-17-------17-------17-------17-------17-------|
B|----15-------15-------15-------15-------15----|
G|-------14-------14-------14-------14-------14-|
D|----------------------------------------------|
A|----------------------------------------------|
D|----------------------------------------------|

e|-13-------13-------13----12-------12-------12----|
B|----15-------15-------------15-------15----------|
G|-------14-------14----14-------14-------14----14-|
D|-------------------------------------------------|
A|-------------------------------------------------|
D|-------------------------------------------------|

e|-17-------17-------17-------17-------17-------|
B|----15-------15-------15-------15-------15----|
G|-------14-------14-------14-------14-------14-|
D|----------------------------------------------|
A|----------------------------------------------|
D|----------------------------------------------|

e|-13-------13-------13----15-------15-------15----|
B|----15-------15-------------15-------15----------|
G|-------14-------14----14-------14-------14----14-|
D|-------------------------------------------------|
A|-------------------------------------------------|
D|-------------------------------------------------|

Play this part twice but the second time around bend the last chords

e|---------------------------------------------------------------------|
B|---------------------------------------------------------------------|
G|-/12-14-14-14-14-14-14-14-14-/12-14-14-14-14-14-14-14-14-17-17-17-17-|
D|---x--x--x--x--x--x--x--x--x---x--x--x--x--x--x--x--x--x--x--x--x--x-|
A|-/10-12-12-12-12-12-12-12-12-/10-12-12-12-12-12-12-12-12-15-15-15-15-|
D|---------------------------------------------------------------------|

e|-------------------------------------------------|
B|-------------------------------------------------|
G|-22-22-22-22-22-22-22-22-21-21-21-21-21-21-21-21-|
D|--x--x--x--x--x--x--x--x--x--x--x--x--x--x--x--x-|
A|-20-20-20-20-20-20-20-20-19-19-19-19-19-19-19-19-|
D|-------------------------------------------------|

e|----------------------------------------------------------|
B|----------------------------------------------------------|
G|-/12-14-14-14-14-14-14-14-14-/12-14-14-14-14-14-14-14-14--|
D|---x--x--x--x--x--x--x--x--x---x--x--x--x--x--x--x--x--x--|
A|-/10-12-12-12-12-12-12-12-12-/10-12-12-12-12-12-12-12-12--|
D|----------------------------------------------------------|

e|-----------------------------------------------------------------|
B|-----------------------------------------------------------------|
G|-/12-14-14-14-14-19-19-19-19-19-19-19-19-19-19-19-19-19-19-19-19-|
D|---x--x--x--x--x--x--x--x--x--x--x--x--x--x--x--x--x--x--x--x--x-|
A|-/10-12-12-12-12-17-17-17-17-17-17-17-17-17-17-17-17-17-17-17-17-|
D|-----------------------------------------------------------------|

Play twice, but let the notes ring the second time

e|--------------------------------------------------------------|
B|--------------------------------------------------------------|
G|--------------------------------------------------------------|
D|--------------------------------------------------------------|
A|-00000-000-0---00000-000-0---00000-000-0-0000000000000000-----|
D|-00000-000-0---00000-000-0---00000-000-0-0000000000000000-----|
   ***** *** *   ***** *** *   ***** *** * ****************

e|----------|
B|----------|
G|----------|
D|-0-0------|
A|-0-0------|
D|-0-0------|


Tap to rate this tab
# A B C D E F G H I J K L M N O P Q R S T U V W X Y Z