Song name
# A B C D E F G H I J K L M N O P Q R S T U V W X Y Z

Blessthefall - Waiting For Tomorrow tab

This is not my tab... this is someone elses for the most part, but i changed the
intro and the verse kind of, other than that they did a great job on this.

INTRO: (played with reverb)

Both guitars
e|---------------------------------------------------------|
B|---------------------------------------------------------|
G|-------13---------11---------13----------11----------13--|
D|---11----------9----------11----------9----------11------|
A|9-----------7----------9----------7----------9-----------|
D|---------------------------------------------------------|

Guitar 1: (then still with reverb)
e|-----------------------------------|
B|-----------------------------------|
G|--13--13/14--13--11-13/16--14--13--|
D|-----------------------------------|
A|-----------------------------------|
D|-----------------------------------|

Guitar 2:(then play this once clean then twice with distortion)
e|----------------------------------------------------|
B|----------------------------------------------------|
G|---------13-----------11------------13-----------9--|  (x3)
D|----11------------9------------11------------7------|
A|9-------------7------------9-------------5----------|
D|----------------------------------------------------|
idk about this part.

VERSE:

Guitar 1: (x5)
e|-----------------------------------|
B|-----------------------------------|
G|---------13----14----13---11---13--|
D|----11-----------------------------|
A|-99----9----99----99----9----9-----|
D|-----------------------------------|

e|------------------------------------|
B|------------------------------------|
G|----------------------11----11------|
D|----7----9----------9------------9--|
A|-55----5----55--5/7-------7----7----|
D|------------------------------------|

Guitar 2: (x5)
e|---------------------------------------------|
B|---------------------------------------------|
G|---------------------------------------------|
D|-444444-4-444444-4-222222-2-444444-4-00000-0-|
A|-444444-4-444444-4-222222-2-444444-4-00000-0-|
D|-444444-4-444444-4-222222-2-444444-4-00000-0-|
   ...... . ...... . ...... . ...... . ..... .
then guitar 2 does this (strum up and down on these)
e|----------------------------------|
B|----------------------------------|
G|-7-7-7-7-7-7-7-7--9-9-9-9-9-9-9-9-|
D|-x-x-x-x-x-x-x-x--x-x-x-x-x-x-x-x-|
A|-5-5-5-5-5-5-5-5--7-7-7-7-7-7-7-7-|
D|----------------------------------|
   ^ v ^ v ^ v ^ v  ^ v ^ v ^ v ^ v


(then play...)
both guitars:  (x2)
e|-----------------------------------------------|
B|-----------------------------------------------|
G|-----------------------------------------------|
D|4444--------------------0000-------------------|
A|4444------------11-12---0000------------11-12--|
D|4444--121210109---------0000--121210109--------|
  ....                          ....
e|-----------------------|---------------|
B|-----------------------|---------------|
G|-----------------------|---------------|
D|4444-------------------|-000000-222222-|
A|4444------------11-12--|-000000-222222-|
D|4444--121210109--------|-000000-222222-|
  ....

VERSE: (x4)

Guitar 1: (x4)
e|-----------------------------------|
B|-----------------------------------|
G|---------13----14----13---11---13--|
D|----11-----------------------------|
A|-99----9----99----99----9----9-----|
D|-----------------------------------|

e|------------------------------------|
B|------------------------------------|
G|----------------------11----11------|
D|----7----9----------9------------9--|
A|-55----5----55--5/7-------7----7----|
D|------------------------------------|

Guitar 2: (x4)
e|---------------------------------------------|
B|---------------------------------------------|
G|---------------------------------------------|
D|-444444-4-444444-4-222222-2-444444-4-00000-0-|
A|-444444-4-444444-4-222222-2-444444-4-00000-0-|
D|-444444-4-444444-4-222222-2-444444-4-00000-0-|
   ...... . ...... . ...... . ...... . ..... .
then guitar 2 does this (strum up and down on these)
e|----------------------------------|
B|----------------------------------|
G|-7-7-7-7-7-7-7-7--9-9-9-9-9-9-9-9-|
D|-x-x-x-x-x-x-x-x--x-x-x-x-x-x-x-x-|
A|-5-5-5-5-5-5-5-5--7-7-7-7-7-7-7-7-|
D|----------------------------------|
   ^ v ^ v ^ v ^ v  ^ v ^ v ^ v ^ v


(then play...)
both guitars:  (x2)
e|-----------------------------------------------|
B|-----------------------------------------------|
G|-----------------------------------------------|
D|4444--------------------0000-------------------|
A|4444------------11-12---0000------------11-12--|
D|4444--121210109---------0000--121210109--------|
  ....                          ....
e|-----------------------|---------------|
B|-----------------------|---------------|
G|-----------------------|---------------|
D|4444-------------------|-000000-222222-|
A|4444------------11-12--|-000000-222222-|
D|4444--121210109--------|-000000-222222-|

both guitars:
e|---------------|
B|---------------|
G|---------------|
D|-0000-00-2222--|
A|-0000-00-2222--|
D|-0000-00-2222--|
   .... .. .......

Guitar 1:
e|------------------|
B|------------------|
G|---9-13-14-13-9---| (do that till they start doing the verse till end)
D|-11------------11-|
A|9-----------------|
D|------------------|

Guitar 2: im not sure bout this but it sounds ok. do this till verse.
e|-------------------------------------------------------------------|
B|-------------------------------------------------------------------|
G|-------7-7-7-7-7-7-7-7-------9-9-9-9-9-9-9-9-------7-7-7-7-7-7-7-7-|
D|-44444-x-x-x-x-x-x-x-x-22222-x-x-x-x-x-x-x-x-00000-x-x-x-x-x-x-x-x-|
A|-44444-5-5-5-5-5-5-5-5-22222-7-7-7-7-7-7-7-7-00000-5-5-5-5-5-5-5-5-|
D|-44444-----------------22222-----------------00000-----------------|
   .....                 .....                 .....

then theres little part right here that both guitars do... i think its like this. well
sounds right to me. strum up and down. its a little fast too.
e|------------------------------|
B|------------------------------|
G|-7------9-----10------12------|
D|-x-(x8)-x-(x8)-x-(x8)--x-(x8)-|
A|-5------7------8------10------|
D|------------------------------|


VERSE (play till end):

Guitar 1:
e|-----------------------------------|
B|-----------------------------------|
G|---------13----14----13---11---13--|
D|----11-----------------------------|
A|-99----9----99----99----9----9-----|
D|-----------------------------------|

e|------------------------------------|
B|------------------------------------|
G|----------------------11----11------|
D|----7----9----------9------------9--|
A|-55----5----55--5/7-------7----7----|
D|------------------------------------|

Guitar 2:
e|---------------------------------------------|
B|---------------------------------------------|
G|---------------------------------------------|
D|-444444-4-444444-4-222222-2-444444-4-00000-0-|
A|-444444-4-444444-4-222222-2-444444-4-00000-0-|
D|-444444-4-444444-4-222222-2-444444-4-00000-0-|

ok so this is a little bit different.
e|--------------------------------------------------------------|
B|--------------------------------------------------------------|
G|-7-7-7-7-7-7-7-7--9-9-9-9-9-9-9-9-10-10-10-10-10-10-10-10-10~-|
D|-x-x-x-x-x-x-x-x--x-x-x-x-x-x-x-x--x--x--x--x--x--x--x--x--x~-|
A|-5-5-5-5-5-5-5-5--7-7-7-7-7-7-7-7--8--8--8--8--8--8--8--8--8~-|
D|--------------------------------------------------------------|
   ^ v ^ v ^ v ^ v  ^ v ^ v ^ v ^ v  ^  v  ^  v  ^  v  ^  v  ^


i think thats it. im not exactly sure about the second part of the verse but it sounds 
with the song. and the into for the most part is right to.

| / slide     |
| . palm mute |
| ^ strum up  |
| v strum down|
Tap to rate this tab
 
# A B C D E F G H I J K L M N O P Q R S T U V W X Y Z