Song name
# A B C D E F G H I J K L M N O P Q R S T U V W X Y Z

Blessthefall - Times Like These tab

After I checked all the other tabs of this song ,Im very disappointted. coz  all others 
many wrong notes, so I post my own,and I'm pretty sure its 99% right!   -- Chris

Tuning: Drop D

Chorus x8 -

  Guitar 1    (just repeat this untill to next part )
e|------------------------------------------------------|
B|------------------------------------------------------|
G|------------------------------------------------------|
D|-00-15p14p12-00-15p14p12-00-15p14p12---10p0-10p0-10h12|
A|------------------------------------------------------|
D|------------------------------------------------------|
   ..          ..          ..
   Guitar 2 x2
e|--------------------------------------------------------------------------|
B|--------------------------------------------------------------------------|
G|--------------------------------------------------------------------------|
D|--------0------------0-0-0------------0-------------7p5-------------------|
A|-00-0-0-0-----000000-0-0-0-----00-0-0-0-----000000------8p7---------------|
D|-00-0-0-0-----000000-0-0-0-----00-0-0-0-----000000----------8~------------|
-  .. . .       ......           .. . .       ......
e|-------------------------------------------------------------------------|
B|-------------------------------------------------------------------------|
G|-------------------------------------------------------------------------|
D|--------3------------3-3-3------------8~------------8-8-8----------------|
A|-33-3-3-3-----333333-3-3-3-----88-8-8-8~-----888888-8-8-8----------------|
D|-33-3-3-3-----333333-3-3-3-----88-8-8-8~-----888888-8-8-8----------------|
-  .. . .       ......           .. . .        ......

Verse x4 -

  Guitar 1      ( ) = first two times only, don't play last two.
e|--------------------------------------------------------------------------|
B|--------------------------------------------------------------------------|
G|---------------5-/7-7-7-7-7/9-9-9-9-9----------------7/9-9-9-9-9/10101010-|
D|-------0-------x--x-x-x-x-x-x-x-x-x-x--------0-------x-x-x-x-x-x-x-x-x-x--|
A|000000-0-(0000)3-/5-5-5-5-5/7-7-7-7-7-000000-0-(0000)5/7-7-7-7-7/8-8-8-8--|
D|000000-0-(0000)-----------------------000000-0-(0000)---------------------|
- ......    ....                        ......    ....
  Guitar 2
e|---------------------------------------------------------------------------|
B|---------------------------------------------------------------------------|
G|--------------9-/1010101010/1212121212---------------14-\12121212\10101010-|
D|-------0------x--x-x-x-x-x--x-x-x-x-x---------0------x---x-x-x-x--x-x-x-x--|
A|000000-0(0000)7-/8-8-8-8-8-/1010101010-000000-0(0000)12-\10101010\8-8-8-8--|
D|000000-0(0000)-------------------------000000-0(0000)----------------------|
- ......   ....                          ......   ....
  Guitar 1
e|-------------------------------------------------------------------------|
B|-------------------------------------------------------------------------|
G|--------10-----------10------------10-----------101010-------------------|
D|--------8------------8-------------8------------8-8-8--------------------|
A|-888888-8-8888888888-8--8888888888-8-8888888888-8-8-8--------------------|
D|-888888-8-8888888888-8--8888888888-8-8888888888-8-8-8--------------------|
-  ......   ..........    ..........   ..........
  Guitar 2
e|-------------------------------------------------------------------------|
B|-------------------------------------------------------------------------|
G|--------10-----------10------------10------------------------------------|
D|--------8------------8-------------8------8p7-7p5--3p0-3p0-3h5-----------|
A|-888888-8-8888888888-8-88888888888-8-8888--------------------------------|
D|-888888-8-8888888888-8-88888888888-8-8888--------------------------------|
-  ......   ..........   ...........   ....

  Chorus,

Bridge

  Guitar 1 -
e|--------------------------------------------------------------------------|
B|--------------------------------------------------------------------------|
G|---5h7~----10-9-5~----10~--9~---5h7~------7*b--/10~------12~---b-r--------|
D|--------------------------------------------------------------------------|
A|--------------------------------------------------------------------------|
D|--------------------------------------------------------------------------|
   - x 3
e|--------------------------------------------------------------------------|
B|--------------------------------------------------------------------------|
G|--------------------------------------------------------------------------|
D|--------0----------0----------0-------------------------------------------|
A|-000000-0---000000-0---000000-0-0000--------------------------------------|
D|-000000-0---000000-0---000000-0-0000--------------------------------------|
-  ......     ......     ......   ....
e|------------------------------------------------------------|
B|------------------------------------------------------------|
G|--10p0-9p0-12p0-9h10p9-9h10p9-7h9-7p0-9p0-10p0-9p0-7p0-5h7--|
D|------------------------------------------------------------|
A|------------------------------------------------------------|
D|------------------------------------------------------------|
  Guitar 2  x 3
e|--------------------------------------------------------------------------|
B|--------------------------------------------------------------------------|
G|--------------------------------------------------------------------------|
D|--------0----------0----------0-------8p0-7p0-5p0-7p0-5p0-3h5-------------|
A|-000000-0---000000-0---000000-0-0000--------------------------------------|
D|-000000-0---000000-0---000000-0-0000--------------------------------------|
-  ......     ......     ......   ....
e|------------------------------|
B|------------------------------|
G|------------------------------|
D|--------------------8-8-8-----|
A|-888888888888888888-8-8-8-----|
D|-888888888888888888-8-8-8-----|
-  ..................
e|--------------------------------------------------------------------------|
B|--------------------------------------------------------------------------|
G|--------------------------------------------------------------------------|
D|--0---0---0---------------------------------------------------------------|
A|--0---0---0---------------------------------------------------------------|
D|--0---0---0---------------------------------------------------------------|


BD 2 (  This part I'm sure its 100% right! and thats the only right part from all the 
tabs I've checked before, thats the most reason why I post this tab, so check it out )

Guitar 1
e|--------------------------------------|
B|--------------------------------------|
G|--------------------------------------|  X7
D|------8-7--5-----------8-7--5---------|
A|----5-----8-7---5/3/5------8-7--------|
D|-00-----------------------------------|
   ..
e|----------------------------------------|
B|----------------------------------------|
G|----------------------------------------|
D|------8-7--5-----------8-7--5-----------|
A|----5-----8-7---5/3/5------8-7----7br---|
D|-00-------------------------------------|
   ..


   Guitar 2
e|-------------------------------------------------------------------------|
B|-------------------------------------------------------------------------|
G|-------------------------------------------------------------------------|
D|--------------------------------------------------------------------00---|
A|-000---00-----000---00-----000---00-----000---00------7b-b-b-r--~---00---|
D|-000---00-----000---00-----000---00-----000---00--------------------00---|
-  ...   ..     ...   ..     ...   ..     ...   ..

    *DRUM SOLO*

 Guitars 1,2 x 8
e|----------|    e|--------------|
B|----------|    B|--------------|
G|----------|    G|-----7*-------|
D|----------|    D|--------------|
A|--00--00--|    A|--------------|
D|--00--00--|    D|--------------|
-   ..  ..

Thats it,  hope u guys enjoy it, and please dont forget the 5 stars ! XD

| /  slide up
| \  slide down
| h  hammer-on
| p  pull-off
| ~  vibrato
| +  harmonic
| x  Mute note
============================================================================
Tap to rate this tab
 
# A B C D E F G H I J K L M N O P Q R S T U V W X Y Z