Song name
# A B C D E F G H I J K L M N O P Q R S T U V W X Y Z

Blessthefall - Undefeated tab

----------------------------------------------------------------------------
                            UNDEFEATED - Blessthefall                       
----------------------------------------------------------------------------

Tabbed by: GeetarGinger
Email: soulseek117@hotmail.com

Tuning: Drop D

INTRO
0:14
e|-------------------------------------------------------------------------|
B|-------------------------------------------------------------------------|
G|-------------------------------------------------------------------------|
D|--0000-00---12p0-12p0-----0000-00---12p0-12p0-15p0-14p0-10h12p10---------|
A|--0000-00-----------------0000-00---------------------------------12-----|
D|--0000-00-----------------0000-00----------------------------------------|


e|-------------------------------------------------------------------------|
B|-------------------------------------------------------------------------|
G|-------------------------------------------------------------------------|
D|--0000-00---12p0-12p0-----0000-00---12p0-12p0-15p0-14p0-10h12p10---------|
A|--0000-00-----------------0000-00---------------------------------12-----|
D|--0000-00-----------------0000-00----------------------------------------|


e|-------------------------------------------------------------------------|
B|-------------------------------------------------------------------------|
G|-------------------------------------------------------------------------|
D|--8888-88---12p0-12p0-----8888-88---12p0-12p0-15p0-14p0-10h12p10---------|
A|--8888-88-----------------8888-88---------------------------------12-----|
D|--8888-88-----------------8888-88----------------------------------------|


e|-------------------------------------------------------------------------|
B|-------------------------------------------------------------------------|
G|-------------------------------------------------------------------------|
D|--5555-55---12p0-12p0-----7777-77---12p0-12p0-15p0-14p0-10h12p10---------|
A|--5555-55-----------------7777-77---------------------------------12-----|
D|--5555-55-----------------7777-77----------------------------------------|




************************************

| /   slide up
| \   slide down
| h   hammer-on
| p   pull-off
| ~   vibrato
| +   harmonic
| x   Mute note
| b   Bend
| pb  Pre-bend
| br  Bend release
| pbr Pre-bend release
| brb Bend release bend

************************************
Tap to rate this tab
# A B C D E F G H I J K L M N O P Q R S T U V W X Y Z